Sound will begin in 5 seconds

Viimeinen syksy

01234567891011121314151617181920212223
E
B
G
D
A
E
B
0 1 2 3 4 5 6 7 8 9 10 11 12 13 14 15 16 17 18 19 20 21 22 23
(/) Slide Up  (\) Slide Down  (h) Hammer On  (p) Pull Off  (b) Bend (r) Release (v) Vibrato

Stave 1:

G|-----------|-----------|-----------|-----5--7--|--
D|-----------|-----------|-----3--5--|--7--------|--
A|-----------|--------3--|--5--------|-----------|--
E|--5--3--1--|--3--5-----|-----------|-----------|--

Stave 2:

G|-----------|-----------|-----------|-----5--7--|--
D|-----------|-----------|-----3--5--|--7--------|--
A|-----------|--------3--|--5--------|-----------|--
E|--5--3--1--|--3--5-----|-----------|-----------|--

Stave 3:

G|-----------|-----------|-----------|--------------|--
D|-----------|-----------|-----3--5--|--7--7--7--7--|--
A|-----------|--------3--|--5--------|--------------|--
E|--5--3--1--|--3--5-----|-----------|--------------|--

Stave 4:

G|-----------|--
D|--7--------|--
A|-----------|--
E|-----------|--

Stave 5:

G|--------------|--------------|--------------|--------------|--
D|--------------|--------------|--------------|--------------|--
A|--5--5--5--5--|--5--5--5--5--|--5--5--5--5--|--5--5--5--5--|--
E|--------------|--------------|--------------|--------------|--

Stave 6:

G|--------------|--------------|--------------|--------------|--
D|--5--5--5--5--|--5--5--5--5--|--------------|--------------|--
A|--------------|--------------|--5--5--5--5--|--------------|--
E|--------------|--------------|--------------|--5--5--5--5--|--

Stave 7:

G|--------------|--------------|--------------|--------------|--
D|--------------|--------------|--------------|--1--1--1--1--|--
A|--2--2--2--2--|--1--1--1--1--|--3--3--3--3--|--------------|--
E|--------------|--------------|--------------|--------------|--

Stave 8:

G|--------------|--------------|--------------|--------------|--
D|--2--2--2--2--|--------------|--------------|--------------|--
A|--------------|--2--2--2--2--|--5--5--5--5--|--5/19--------|--
E|--------------|--------------|--------------|--------------|--

Stave 9:

G|---------------|--------------|--------------|--
D|---------------|--------------|--------------|--
A|--19-----------|--5--5--5--5--|--5--5--5--5--|--
E|---------------|--------------|--------------|--

Stave 10:

G|--------------|--------------|--------------|--------------|-----------------|--
D|--------------|--------------|--------------|--------------|-----------------|--
A|--------------|--------------|--------------|--------------|-----------------|--
E|--5--5--5--5--|--4--4--4--4--|--3--3--3--3--|--0--0--0--0--|--0--------------|--

Stave 11:

G|--
D|--
A|--
E|--

Stave 12:

G|--
D|--
A|--
E|--

Stave 13:

G|---------------|--
D|---------------|--
A|--19-----------|--
E|---------------|--

Stave 14:

G|--
D|--
A|--
E|--

Stave 15:

G|-----------|-----------|-----------|-----5--7--|--
D|-----------|-----------|-----3--5--|--7--------|--
A|-----------|--------3--|--5--------|-----------|--
E|--5--3--1--|--3--5-----|-----------|-----------|--

Stave 16:

G|-----------|-----------|-----------|--------------|--------------|--
D|-----------|-----------|-----3--5--|--7--7--7--7--|--7-----------|--
A|-----------|--------3--|--5--------|--------------|--------------|--
E|--5--3--1--|--3--5-----|-----------|--------------|--------------|--

Stave 17:

G|-----------------|--------------|--
D|-----------------|--------------|--
A|--5--5--5--5--5--|--------------|--
E|-----------------|--------------|--

http://www.guitartabcreator.com
Guitar Tab Creator is intended to store guitar tab created through the tool. It currently does not support in-line text editing. Any text you place in here will be lost. If you need to comment on your tab, please use the "Tab Notes" section located below.