Sound will begin in 5 seconds

(#) Thingamajig

Chords
01234567891011121314151617181920212223
E
B
G
D
A
E
B
0 1 2 3 4 5 6 7 8 9 10 11 12 13 14 15 16 17 18 19 20 21 22 23
(/) Slide Up  (\) Slide Down  (h) Hammer On  (p) Pull Off  (b) Bend (r) Release (v) Vibrato

Stave 1:

E|-----------------
B|-----------------
G|-----------------
D|-----------------
A|--------4--5--7--
E|--5--7-----------

Stave 2:

E|-----------------|-----------------
B|-----------------|-----------------
G|-----------------|-----------------
D|--5--------------|--5--------------
A|--5--9--4--5--7--|--5--9--4--5--7--
E|--5--7-----------|--5--------------

Stave 3:

E|---------------------------------------------|-----------------
B|---------------------------------------------|-----------------
G|---------------------------------------------|-----------------
D|--5--------------5------------5-----------4--|--4--5-----------
A|--5--9--4h5h7p7--5--9--4h5p5--5--9--4--5-----|--------5--4-----
E|--5--7-----------5--7---------5--7-----------|--------------5--

http://www.guitartabcreator.com
Guitar Tab Creator is intended to store guitar tab created through the tool. It currently does not support in-line text editing. Any text you place in here will be lost. If you need to comment on your tab, please use the "Tab Notes" section located below.