Sound will begin in 5 seconds

(#) Super Blues

Chords
01234567891011121314151617181920212223
E
B
G
D
A
E
B
0 1 2 3 4 5 6 7 8 9 10 11 12 13 14 15 16 17 18 19 20 21 22 23
(/) Slide Up  (\) Slide Down  (h) Hammer On  (p) Pull Off  (b) Bend (r) Release (v) Vibrato

Stave 1:

E|---------|---------|-
B|---------|---------|-
G|---------|---------|-
D|---------|---------|-
A|-----4-4-|-------7-|-
E|-0-0-2-2-|-5-5-5-5-|-

Stave 2:

E|-----------|-----------|---------------------------|-------|-------|-------|--------|--------------|-
B|--------14-|--------14-|------------------------14-|-------|-------|-------|--------|-----------14-|-
G|-9-9-11----|-9-9-11----|-11b13r11-11b13r11-9-11----|-9-8-7-|-9-8-7-|-9-8-7-|-9-11-7-|-7\11-9-11----|-
D|-----------|-----------|---------------------------|-------|-------|-------|--------|--------------|-
A|-----------|-----------|---------------------------|-------|-------|-------|--------|--------------|-
E|-----------|-----------|---------------------------|-------|-------|-------|--------|--------------|-

Stave 3:

E|-----------
B|-----------
G|-9-9-11-12-
D|-7-7-9--10-
A|-----------
E|-----------

Stave 4:

E|-
B|-
G|-
D|-
A|-
E|-

http://www.guitartabcreator.com
Guitar Tab Creator is intended to store guitar tab created through the tool. It currently does not support in-line text editing. Any text you place in here will be lost. If you need to comment on your tab, please use the "Tab Notes" section located below.