Sound will begin in 5 seconds

(2) Am I Evil Solo

01234567891011121314151617181920212223
E
B
G
D
A
E
B
0 1 2 3 4 5 6 7 8 9 10 11 12 13 14 15 16 17 18 19 20 21 22 23
(/) Slide Up  (\) Slide Down  (h) Hammer On  (p) Pull Off  (b) Bend (r) Release (v) Vibrato

Stave 1:

G|-9b11-----8p9-8h9p8-8h9h11-8h9p8-----|-
D|------7-4------------------------9-7-|-
A|-------------------------------------|-
E|-------------------------------------|-

Stave 2:

G|----------------|-------------|-----------------------|-
D|-9-12-11-9h11p9-|-7-9-7-4-7p4-|-2-4-2-0-4p2---1h2h3---|-
A|----------------|-------------|-------------2-------2-|-
E|----------------|-------------|-----------------------|-

Stave 3:

G|-7-4-------------|-----------------------|-
D|-----7-4---------|-12-9------14-12-14----|-
A|---------7-5-7---|------12-9----------14-|-
E|---------------7-|-----------------------|-

http://www.guitartabcreator.com
Guitar Tab Creator is intended to store guitar tab created through the tool. It currently does not support in-line text editing. Any text you place in here will be lost. If you need to comment on your tab, please use the "Tab Notes" section located below.