Sound will begin in 5 seconds

(1) Girls and Boys bass tab

01234567891011121314151617181920212223
E
B
G
D
A
E
B
0 1 2 3 4 5 6 7 8 9 10 11 12 13 14 15 16 17 18 19 20 21 22 23
(/) Slide Up  (\) Slide Down  (h) Hammer On  (p) Pull Off  (b) Bend (r) Release (v) Vibrato

Stave 1:

G|-----------------------
D|-----------------------
A|-----------------------
E|-5-4-5-4-5-4-4h6p6-4-6-

Stave 2:

G|-----------------------------|------------------------------|-
D|-----------------------------|-10-9-10-9-10-9-10h12p12-9-12-|-
A|-10-9-10-9-10-9-9-10-11-9-12-|------------------------------|-
E|-----------------------------|------------------------------|-

Stave 3:

G|---------------------------------------------------
D|---------------------------13/9-13/9-13/9----------
A|-10-9-10-9-10-9-9-10-11-12----------------11-10-12-
E|---------------------------------------------------

http://www.guitartabcreator.com
Guitar Tab Creator is intended to store guitar tab created through the tool. It currently does not support in-line text editing. Any text you place in here will be lost. If you need to comment on your tab, please use the "Tab Notes" section located below.