Sound will begin in 5 seconds

Bharatiya sahasa (Alt-J/American Boy)

Chords
01234567891011121314151617181920212223
E
B
G
D
A
E
B
0 1 2 3 4 5 6 7 8 9 10 11 12 13 14 15 16 17 18 19 20 21 22 23
Song Science #1: How Pros Use 6 Chords to Write Hit Songs
(/) Slide Up  (\) Slide Down  (h) Hammer On  (p) Pull Off  (b) Bend (r) Release (v) Vibrato

Stave 1:

E|-----------------------------------------------------------------------------------------------0--0--
B|--------7--x--x--7--x--x--7--7--7--------3--x--x--3--x--x--3--3--3--------2--x--x--2--x--x--2--2--2--
G|--------8--x--x--8--x--x--8--8--8--------4--x--x--4--x--x--4--4--4--------2--x--x--2--x--x--2--2--2--
D|--------8--x--x--8--x--x--8--8--8--------4--x--x--4--x--x--4--4--4--------2--x--x--2--x--x--2--2--2--
A|--------------------------------------------------------------------0-----------------------0--0--0--
E|--7-----------------------7--7--7--3-----------------------3--3--3--------------------------x--x--x--

Stave 2:

E|-----------------------------
B|--------0--x--x--0--x--x--0--
G|--------0--x--x--0--x--x--0--
D|--------2--x--x--2--x--x--2--
A|--------2--x--x--2--x--x--2--
E|--0-----0--x--x--0--x--x--0--

Stave 3:

E|--14--12--5--7--10--7--14--12--5--7--2--0/
B|--0---0---0--0--0---0--0---0---0--0--0--0-
G|--9---9---9--9--9---9--9---9---9--9--9--9-
D|--9---9---9--9--9---9--9---9---9--9--9--9-
A|--9---9---9--9--9---9--9---9---9--9--9--9-
E|--9---9---9--9--9---9--9---9---9--9--9--9-

Stave 4:

E|--6--7--10--9-------------
B|---------------10--12--7--
G|--------------------------
D|--------------------------
A|--------------------------
E|--------------------------

Stave 5:

E|-----------------------------------
B|-----------------------------------
G|-----------------------------------
D|-----------------------------------
A|--------------------0--0-----------
E|--7--7-----3--3--------------0--0--

http://www.guitartabcreator.com
Guitar Tab Creator is intended to store guitar tab created through the tool. It currently does not support in-line text editing. Any text you place in here will be lost. If you need to comment on your tab, please use the "Tab Notes" section located below.