Clair de lune

Chords

01234567891011121314151617181920212223
E
B
G
D
A
E
B
0 1 2 3 4 5 6 7 8 9 10 11 12 13 14 15 16 17 18 19 20 21 22 23
(/) Slide Up  (\) Slide Down  (h) Hammer On  (p) Pull Off  (b) Bend (r) Release (v) Vibrato

Stave 1:

E|------5-2-|---0-2-0-|-----0---2------|---------|---------0---------|-----------|-------------------|-
B|--------3-|---------|---3---3---3----|---2-3-2-|---0-2-0---0---0---|-----------|---------0---------|-
G|----2-----|-3-------|-2--------------|-0-------|-0-----------2---2-|---0-2-0---|-----0-------------|-
D|----4-----|-5-------|-4--------------|-2-------|-0-----------5-----|-0-------4-|---4---4---4---4---|-
A|----------|---------|----------------|---------|-------------4-----|-2-------1-|-0-----------7---7-|-
D|----------|---------|----------------|---------|-------------------|-----------|-------------5-----|-

Stave 2:

E|-------------|-------5-|---0-2-0-|-----0-5-2-|---0-2-0---|-----0-7-5---|---2-0-0-0---|-------------|-
B|-------------|-------3-|---0-----|---3---3---|---0-----3-|---3---7---7-|---0-0-0-0-3-|-3-2-2-2-3-0-|-
G|-------------|---------|---0-----|---2-----2-|---0-------|---5---5-----|---0-0-0-0-4-|-4-4-4-4-4-0-|-
D|---0---0-----|-----4---|-0-------|-0---------|-0---------|---4---------|-----------5-|-5-5-5-5-5-0-|-
A|-----7---4-0-|---0-----|---------|-----------|-----------|-0-----------|-------------|-------------|-
D|-4-------2---|-0-------|-5-------|-4---------|-5---------|-------------|-2-----------|-------------|-

Stave 3:

E|---2-3-2-0-2-0-|-------------|-------------|---------------|-------------|---------------|-------0-----|-
B|---0-0-0-0-0-0-|-3-5-3-2-3-0-|-------2-0---|---------------|-------3-0---|---------------|---------3-0-|-
G|---0-0-0-0-0-0-|-4-4-4-4-4-0-|---0-2---0-0-|---0-0-0-0-2-0-|---0-2---0-0-|---0-0-0-0-2-0-|---0-2---4---|-
D|---------------|-5-5-5-5-5-0-|-----2-------|---2-2-2-2-2-2-|---0---------|---2-2-2-2-2-2-|---0-----5---|-
A|-2-------------|-------------|-0-----------|-1-------------|-2-----------|-4-------------|---2---------|-
D|-2-------------|-------------|-------------|---------------|-------------|---------------|-0-----------|-

Stave 4:

E|-----------------0-|-5-5-|-5-5-|---------------------------------------|-------------------------------
B|---0-0-0-0-2-0-3-0-|-3-3-|-3-2-|---------------------2-----1-------3---|-------------------2-----1-----
G|---0-0-0-0-2-0-4-0-|---4-|-2-0-|-2-------0---------2---2-------2-------|-2-----2---------2---2-------2-
D|---0-0-0-0-2-0-5---|-4-3-|-2---|-------0---0-----4-------4---3---3---3-|-----0---0-----4-------4---3---
A|-------------------|-----|---0-|-----0-------0-------------0-----------|---0-------0-------------0-----
D|-2-----------------|-----|-----|-0-0-----------4-----------------------|-0-----------4-----------------

Stave 5:

E|-------|---------0---2-------------------2---|-4---2-------------------------------|-------------------|-
B|-------|-3-------------3---------3-----------|---------3---3-----------------------|-0-----0-----------|-
G|---2---|-------2---2-----2-------------2---2-|---4---4---4---4---4-----------4-----|-----0---0-------0-|-
D|-3---3-|-----0-------------0---0-----0-------|-----------------2-----2-----2---2---|---2-------2---0---|-
A|-------|---0-----------------0-----0---------|---------------------2-----2-------2-|-0-----------------|-
D|-------|-0-----------------------0-----------|-2-----------------------2-----------|-------------5-----|-

Stave 6:

E|-------------2---|---------------------------------2---|-3-------------------------------------------|-
B|-0---2-----2-----|-------0-----------0-----2-----2-----|-------0-----------7-----4-----5-------------|-
G|---0-----2-----2-|-----0---0-------0---0-------2-----2-|-----0---0-------4-----4-----4-----4---------|-
D|-------4---------|---2-------2---0-------0---4---------|---2-------2---5-----5-----5-----5-----------|-
A|-----------------|-0-----------------------------------|---------------------------------------------|-
D|-----4-----------|-------------4-----------4-----------|-2-----------5-------------------------------|-

Stave 7:

E|-7-----7-----------7-----5-----------|-------------------------------------|---------------------------|-
B|-----0---0-------0---0---------2-----|-------------------2-----1-------3---|-------------------2-----1-|-
G|---0-------0---0-------0-----2---2---|-2-----1---------2---2-------2-------|-2-----1---------2---2-----|-
D|---------------------------3-------3-|-----0---0-----4-------4---3---3---3-|-----0---0-----4-------4---|-
A|-6-----------7-----------0-----------|---0-------0-------------0-----------|---0-------0-------------0-|-
D|-------------------------------------|-0-----------4-----------------------|-0-----------4-------------|-

Stave 8:

E|-----------|-------------1-----------5-------1---|-5-----------3-----------------------|-3-------------|-
B|-----------|-3-------------------2---------3---3-|---------3---------3-----------3-----|-------3-------|-
G|---2---2---|---------2---------1---1-----2-------|-------2---2-----3---3-------3---3---|-----3---3-----|-
D|-3---3---3-|-----0-3---3-----0---------3---------|---0-3---------5-------5---5-------5-|---5-------5---|-
A|-----------|---0-----------0---------0-----------|-3-----------------------------------|---------------|-
D|-----------|-0-----------3-----------------------|-------------5-----------4-----------|-3-----------2-|-

Stave 9:

E|-----------6-------10----|-3-----------------------6-------10----|-13-12-10-8--6-5-3-|-1-0-------------|-
B|-----3-----------3-------|-------------------------------3-------|----13-11-10-8-6-5-|-3-1-3-1---------|-
G|---3---3-0-----3------10-|-------0-----------0---------3------10-|-0-----------------|-----3-2-3-2-0---|-
D|-5-----------3-----------|-----0---0-------0---0-----3-----------|-------------------|---------5-3-2-3-|-
A|-------------------------|---1-------1---1-------1-0-------------|-------------------|---------------5-|-
D|-----------0-------------|-2-----------0-------------------------|-------------------|-----------------|-

Stave 10:

E|-------------|-------------|---2-0-----------|---2-0-------------|-0-------3-7-|-0-------3-7-|-12-------|-
B|-----------0-|-----------0-|---2-0-0---------|-0-2-0-0-----------|-3-----3-5---|-3-----3-5---|--------0-|-
G|---------0---|---------0---|---2-0-0---2-----|-0-2-0-0-----2-----|-0-2-4---6---|-0-2-4---6---|------0---|-
D|-2-----0-2---|-2-----0-2---|-0-----0-0-2---2-|-0-----0---0-2---2-|-------------|-------------|----0-----|-
A|---0-2---4---|---0-2---4---|-----------2-4---|---------2---2-4---|-------------|-------------|----------|-
D|-5-----------|-5-----------|-----------------|-------------------|-------------|-------------|----------|-

Stave 11:

E|-----------------------------|-------------------------------------|-------------5-----2-|---0-2-0-|-
B|-----------1-----------0-----|-------3-----------3-----------5-----|---------2-----------|---------|-
G|-0-------0---0-------0---0---|-----3---3-------5---5-------3---3---|-----2-----2---------|-3-------|-
D|---0---0-------0---0-------0-|---0-------0---0-------0---0-------0-|---4---4---------4---|-5-------|-
A|-----------------------------|-------------------------------------|---------------0-----|---------|-
D|-----5-----------5-----------|-5-----------5-----------5-----------|-4-----------0-------|---------|-

Stave 12:

E|-----0---2---|---------|---------0---------|-----------|---------7---0---0-|-----0-------|-------5-2-|-
B|---3---3---3-|---2-3-2-|---0-2-0---0---0---|-----------|---7-8-7---7---7---|-------------|---------3-|-
G|-2-----------|-0-------|-0-----------2---2-|---0-2-0---|-------------------|---7---7-6---|-------5---|-
D|-4-----------|-2-------|-0-----------------|---------4-|-------------------|-------------|-----4-----|-
A|-------------|---------|-------------4-----|-2-------1-|-0-----------------|-----------0-|---1-------|-
D|-------------|---------|-------------------|-----------|-------------5-----|-4-------2---|-0---------|-

Stave 13:

E|---0-2-0-|-----0-5-2-|-----2-----|-------7---|--------10-7-|------9-5---|-------2-----------2-----------2-|-
B|---0-----|---3-----3-|---5---5-3-|-------7-7-|---8-10-8--8-|---12-------|-----3---3-------2---2-------3---|-
G|---0-----|-------5---|-----------|---7-9-7-7-|---7----9--9-|---12-------|---2-------2---2-------2---2-----|-
D|-0-------|---4-------|---4-------|---7-----7-|---9---------|----------7-|---------------------------------|-
A|---------|-0---------|-2---------|-9---------|-7-----------|-0----------|---------------------------------|-
D|-5-------|-----------|-----------|-----------|-------------|------------|-0-----------4-----------0-------|-

Stave 14:

E|-----|-------2-----8-------------|-------2-----------2-----------2-----------2-----|-8-------------|-
B|-3---|-----2---2---------6-------|-----3---3-------2---2-------3---3-------2---2---|-------6-------|-
G|---2-|---2-------2-----5---5---7-|---2-------2---2-------2---2-------2---2-------2-|-----5---5---7-|-
D|-----|---------------7-------7---|-------------------------------------------------|---7-------7---|-
A|-----|-------------0-------------|-------------------------------------------------|-0-------------|-
D|-----|-4-------------------------|-0-----------4-----------0-----------4-----------|---------------|-

Stave 15:

E|-8-------------13-5-----------------5-|-
B|--------------------------2-7-----7---|-
G|-------6----------------1-------7-----|-
D|-----5---5---7--------0-------7-------|-
A|-0-7-------7---12---0-----------------|-
D|------------------0-------------------|-

							http://www.guitartabcreator.com
Instruments
{"strings":[[["_",".",5,2,"|",".",0,2,0,"|",".",".",0,".",2,".","_","|",".",".",".",".","|",".",".",".",".",0,".",".",".",".","|",".",".",".",".",".","|",".",".",".",".",".",".",".",".",".","|"],["_",".",".",3,"|",".",".",".",".","|",".",3,".",3,".",3,"_","|",".",2,3,2,"|",".",0,2,0,".",0,".",0,".","|",".",".",".",".",".","|",".",".",".",".",0,".",".",".",".","|"],["_",2,".",".","|",3,".",".",".","|",2,".",".",".",".",".","_","|",0,".",".",".","|",0,".",".",".",".",".",2,".",2,"|",".",0,2,0,".","|",".",".",0,".",".",".",".",".",".","|"],["_",4,".",".","|",5,".",".",".","|",4,".",".",".",".",".","_","|",2,".",".",".","|",0,".",".",".",".",".",5,".",".","|",0,".",".",".",4,"|",".",4,".",4,".",4,".",4,".","|"],["_",".",".",".","|",".",".",".",".","|",".",".",".",".",".",".","_","|",".",".",".",".","|",".",".",".",".",".",".",4,".",".","|",2,".",".",".",1,"|",0,".",".",".",".",".",7,".",7,"|"],["_",".",".",".","|",".",".",".",".","|",".",".",".",".",".",".","_","|",".",".",".",".","|",".",".",".",".",".",".",".",".",".","|",".",".",".",".",".","|",".",".",".",".",".",".",5,".",".","|"]],[[".",".",".",".",".",".","|",".",".",".",5,"|",".",0,2,0,"|",".",".",0,5,2,"|",".",0,2,0,".","|",".",".",0,7,5,".","|",".",2,0,0,0,".","|",".",".",".",".",".",".","|"],[".",".",".",".",".",".","|",".",".",".",3,"|",".",0,".",".","|",".",3,".",3,".","|",".",0,".",".",3,"|",".",3,".",7,".",7,"|",".",0,0,0,0,3,"|",3,2,2,2,3,0,"|"],[".",".",".",".",".",".","|",".",".",".",".","|",".",0,".",".","|",".",2,".",".",2,"|",".",0,".",".",".","|",".",5,".",5,".",".","|",".",0,0,0,0,4,"|",4,4,4,4,4,0,"|"],[".",0,".",0,".",".","|",".",".",4,".","|",0,".",".",".","|",0,".",".",".",".","|",0,".",".",".",".","|",".",4,".",".",".",".","|",".",".",".",".",".",5,"|",5,5,5,5,5,0,"|"],[".",".",7,".",4,0,"|",".",0,".",".","|",".",".",".",".","|",".",".",".",".",".","|",".",".",".",".",".","|",0,".",".",".",".",".","|",".",".",".",".",".",".","|",".",".",".",".",".",".","|"],[4,".",".",".",2,".","|",0,".",".",".","|",5,".",".",".","|",4,".",".",".",".","|",5,".",".",".",".","|",".",".",".",".",".",".","|",2,".",".",".",".",".","|",".",".",".",".",".",".","|"]],[[".",2,3,2,0,2,0,"|",".",".",".",".",".",".","|",".",".",".",".",".",".","|",".",".",".",".",".",".",".","|",".",".",".",".",".",".","|",".",".",".",".",".",".",".","|",".",".",".",0,".",".","|"],[".",0,0,0,0,0,0,"|",3,5,3,2,3,0,"|",".",".",".",2,0,".","|",".",".",".",".",".",".",".","|",".",".",".",3,0,".","|",".",".",".",".",".",".",".","|",".",".",".",".",3,0,"|"],[".",0,0,0,0,0,0,"|",4,4,4,4,4,0,"|",".",0,2,".",0,0,"|",".",0,0,0,0,2,0,"|",".",0,2,".",0,0,"|",".",0,0,0,0,2,0,"|",".",0,2,".",4,".","|"],[".",".",".",".",".",".",".","|",5,5,5,5,5,0,"|",".",".",2,".",".",".","|",".",2,2,2,2,2,2,"|",".",0,".",".",".",".","|",".",2,2,2,2,2,2,"|",".",0,".",".",5,".","|"],[2,".",".",".",".",".",".","|",".",".",".",".",".",".","|",0,".",".",".",".",".","|",1,".",".",".",".",".",".","|",2,".",".",".",".",".","|",4,".",".",".",".",".",".","|",".",2,".",".",".",".","|"],[2,".",".",".",".",".",".","|",".",".",".",".",".",".","|",".",".",".",".",".",".","|",".",".",".",".",".",".",".","|",".",".",".",".",".",".","|",".",".",".",".",".",".",".","|",0,".",".",".",".",".","|"]],[[".",".",".",".",".",".",".",".",0,"|",5,5,"|",5,5,"|",".",".",".",".",".",".",".",".",".",".",".",".",".",".",".",".",".",".",".","|",".",".",".",".",".",".",".",".",".",".",".",".",".",".","."],[".",0,0,0,0,2,0,3,0,"|",3,3,"|",3,2,"|",".",".",".",".",".",".",".",".",".",".",2,".",".",1,".",".",".",3,".","|",".",".",".",".",".",".",".",".",".",2,".",".",1,".","."],[".",0,0,0,0,2,0,4,0,"|",".",4,"|",2,0,"|",2,".",".",".",0,".",".",".",".",2,".",2,".",".",".",2,".",".",".","|",2,".",".",2,".",".",".",".",2,".",2,".",".",".",2],[".",0,0,0,0,2,0,5,".","|",4,3,"|",2,".","|",".",".",".",0,".",0,".",".",4,".",".",".",4,".",3,".",3,".",3,"|",".",".",0,".",0,".",".",4,".",".",".",4,".",3,"."],[".",".",".",".",".",".",".",".",".","|",".",".","|",".",0,"|",".",".",0,".",".",".",0,".",".",".",".",".",".",0,".",".",".",".",".","|",".",0,".",".",".",0,".",".",".",".",".",".",0,".","."],[2,".",".",".",".",".",".",".",".","|",".",".","|",".",".","|",0,0,".",".",".",".",".",4,".",".",".",".",".",".",".",".",".",".",".","|",0,".",".",".",".",".",4,".",".",".",".",".",".",".","."]],[[".",".",".","|",".",".",".",".",0,".",2,".",".",".",".",".",".",".",".",".",2,".","|",4,".",2,".",".",".",".",".",".",".",".",".",".",".",".",".",".",".","|",".",".",".",".",".",".",".",".",".","|"],[".",".",".","|",3,".",".",".",".",".",".",3,".",".",".",".",3,".",".",".",".",".","|",".",".",".",".",3,".",3,".",".",".",".",".",".",".",".",".",".",".","|",0,".",".",0,".",".",".",".",".","|"],[".",2,".","|",".",".",".",2,".",2,".",".",2,".",".",".",".",".",".",2,".",2,"|",".",4,".",4,".",4,".",4,".",4,".",".",".",".",".",4,".",".","|",".",".",0,".",0,".",".",".",0,"|"],[3,".",3,"|",".",".",0,".",".",".",".",".",".",0,".",0,".",".",0,".",".",".","|",".",".",".",".",".",".",".",".",2,".",".",2,".",".",2,".",2,".","|",".",2,".",".",".",2,".",0,".","|"],[".",".",".","|",".",0,".",".",".",".",".",".",".",".",0,".",".",0,".",".",".",".","|",".",".",".",".",".",".",".",".",".",".",2,".",".",2,".",".",".",2,"|",0,".",".",".",".",".",".",".",".","|"],[".",".",".","|",0,".",".",".",".",".",".",".",".",".",".",".",0,".",".",".",".",".","|",2,".",".",".",".",".",".",".",".",".",".",".",2,".",".",".",".",".","|",".",".",".",".",".",".",5,".",".","|"]],[[".",".",".",".",".",".",2,".","|",".",".",".",".",".",".",".",".",".",".",".",".",".",".",".",".",2,".","|",3,".",".",".",".",".",".",".",".",".",".",".",".",".",".",".",".",".",".",".",".",".","|"],[0,".",2,".",".",2,".",".","|",".",".",".",0,".",".",".",".",".",0,".",".",2,".",".",2,".",".","|",".",".",".",0,".",".",".",".",".",7,".",".",4,".",".",5,".",".",".",".",".",".","|"],[".",0,".",".",2,".",".",2,"|",".",".",0,".",0,".",".",".",0,".",0,".",".",".",2,".",".",2,"|",".",".",0,".",0,".",".",".",4,".",".",4,".",".",4,".",".",4,".",".",".",".","|"],[".",".",".",4,".",".",".",".","|",".",2,".",".",".",2,".",0,".",".",".",0,".",4,".",".",".",".","|",".",2,".",".",".",2,".",5,".",".",5,".",".",5,".",".",5,".",".",".",".",".","|"],[".",".",".",".",".",".",".",".","|",0,".",".",".",".",".",".",".",".",".",".",".",".",".",".",".",".",".","|",".",".",".",".",".",".",".",".",".",".",".",".",".",".",".",".",".",".",".",".",".",".","|"],[".",".",4,".",".",".",".",".","|",".",".",".",".",".",".",4,".",".",".",".",".",4,".",".",".",".",".","|",2,".",".",".",".",".",5,".",".",".",".",".",".",".",".",".",".",".",".",".",".",".","|"]],[[7,".",".",7,".",".",".",".",".",7,".",".",5,".",".",".",".",".","|",".",".",".",".",".",".",".",".",".",".",".",".",".",".",".",".",".",".","|",".",".",".",".",".",".",".",".",".",".",".",".",".","|"],[".",".",0,".",0,".",".",".",0,".",0,".",".",".",".",2,".",".","|",".",".",".",".",".",".",".",".",".",2,".",".",1,".",".",".",3,".","|",".",".",".",".",".",".",".",".",".",2,".",".",1,"|"],[".",0,".",".",".",0,".",0,".",".",".",0,".",".",2,".",2,".","|",2,".",".",1,".",".",".",".",2,".",2,".",".",".",2,".",".",".","|",2,".",".",1,".",".",".",".",2,".",2,".",".","|"],[".",".",".",".",".",".",".",".",".",".",".",".",".",3,".",".",".",3,"|",".",".",0,".",0,".",".",4,".",".",".",4,".",3,".",3,".",3,"|",".",".",0,".",0,".",".",4,".",".",".",4,".","|"],[6,".",".",".",".",".",7,".",".",".",".",".",0,".",".",".",".",".","|",".",0,".",".",".",0,".",".",".",".",".",".",0,".",".",".",".",".","|",".",0,".",".",".",0,".",".",".",".",".",".",0,"|"],[".",".",".",".",".",".",".",".",".",".",".",".",".",".",".",".",".",".","|",0,".",".",".",".",".",4,".",".",".",".",".",".",".",".",".",".",".","|",0,".",".",".",".",".",4,".",".",".",".",".",".","|"]],[[".",".",".",".",".","|",".",".",".",".",".",".",1,".",".",".",".",".",5,".",".",".",1,".","|",5,".",".",".",".",".",3,".",".",".",".",".",".",".",".",".",".",".","|",3,".",".",".",".",".",".","|"],[".",".",".",".",".","|",3,".",".",".",".",".",".",".",".",".",2,".",".",".",".",3,".",3,"|",".",".",".",".",3,".",".",".",".",3,".",".",".",".",".",3,".",".","|",".",".",".",3,".",".",".","|"],[".",2,".",2,".","|",".",".",".",".",2,".",".",".",".",1,".",1,".",".",2,".",".",".","|",".",".",".",2,".",2,".",".",3,".",3,".",".",".",3,".",3,".","|",".",".",3,".",3,".",".","|"],[3,".",3,".",3,"|",".",".",0,3,".",3,".",".",0,".",".",".",".",3,".",".",".",".","|",".",0,3,".",".",".",".",5,".",".",".",5,".",5,".",".",".",5,"|",".",5,".",".",".",5,".","|"],[".",".",".",".",".","|",".",0,".",".",".",".",".",0,".",".",".",".",0,".",".",".",".",".","|",3,".",".",".",".",".",".",".",".",".",".",".",".",".",".",".",".",".","|",".",".",".",".",".",".",".","|"],[".",".",".",".",".","|",0,".",".",".",".",".",3,".",".",".",".",".",".",".",".",".",".",".","|",".",".",".",".",".",".",5,".",".",".",".",".",4,".",".",".",".",".","|",3,".",".",".",".",".",2,"|"]],[[".",".",".",".",".",6,".",".",".",10,".","|",3,".",".",".",".",".",".",".",".",".",".",".",6,".",".",".",10,".","|",13,12,10,8,6,5,3,"|",1,0,".",".",".",".",".",".","|"],[".",".",3,".",".",".",".",".",3,".",".","|",".",".",".",".",".",".",".",".",".",".",".",".",".",".",".",3,".",".","|",".",13,11,10,8,6,5,"|",3,1,3,1,".",".",".",".","|"],[".",3,".",3,0,".",".",3,".",".",10,"|",".",".",".",0,".",".",".",".",".",0,".",".",".",".",3,".",".",10,"|",0,".",".",".",".",".",".","|",".",".",3,2,3,2,0,".","|"],[5,".",".",".",".",".",3,".",".",".",".","|",".",".",0,".",0,".",".",".",0,".",0,".",".",3,".",".",".",".","|",".",".",".",".",".",".",".","|",".",".",".",".",5,3,2,3,"|"],[".",".",".",".",".",".",".",".",".",".",".","|",".",1,".",".",".",1,".",1,".",".",".",1,0,".",".",".",".",".","|",".",".",".",".",".",".",".","|",".",".",".",".",".",".",".",5,"|"],[".",".",".",".",".",0,".",".",".",".",".","|",2,".",".",".",".",".",0,".",".",".",".",".",".",".",".",".",".",".","|",".",".",".",".",".",".",".","|",".",".",".",".",".",".",".",".","|"]],[[".",".",".",".",".",".","|",".",".",".",".",".",".","|",".",2,0,".",".",".",".",".","|",".",2,0,".",".",".",".",".",".","|",0,".",".",".",3,7,"|",0,".",".",".",3,7,"|",12,".",".",".","|"],[".",".",".",".",".",0,"|",".",".",".",".",".",0,"|",".",2,0,0,".",".",".",".","|",0,2,0,0,".",".",".",".",".","|",3,".",".",3,5,".","|",3,".",".",3,5,".","|",".",".",".",0,"|"],[".",".",".",".",0,".","|",".",".",".",".",0,".","|",".",2,0,0,".",2,".",".","|",0,2,0,0,".",".",2,".",".","|",0,2,4,".",6,".","|",0,2,4,".",6,".","|",".",".",0,".","|"],[2,".",".",0,2,".","|",2,".",".",0,2,".","|",0,".",".",0,0,2,".",2,"|",0,".",".",0,".",0,2,".",2,"|",".",".",".",".",".",".","|",".",".",".",".",".",".","|",".",0,".",".","|"],[".",0,2,".",4,".","|",".",0,2,".",4,".","|",".",".",".",".",".",2,4,".","|",".",".",".",".",2,".",2,4,".","|",".",".",".",".",".",".","|",".",".",".",".",".",".","|",".",".",".",".","|"],[5,".",".",".",".",".","|",5,".",".",".",".",".","|",".",".",".",".",".",".",".",".","|",".",".",".",".",".",".",".",".",".","|",".",".",".",".",".",".","|",".",".",".",".",".",".","|",".",".",".",".","|"]],[[".",".",".",".",".",".",".",".",".",".",".",".",".",".","|",".",".",".",".",".",".",".",".",".",".",".",".",".",".",".",".",".",".","|",".",".",".",".",".",".",5,".",".",2,"|",".",0,2,0,"|"],[".",".",".",".",".",1,".",".",".",".",".",0,".",".","|",".",".",".",3,".",".",".",".",".",3,".",".",".",".",".",5,".",".","|",".",".",".",".",2,".",".",".",".",".","|",".",".",".",".","|"],[0,".",".",".",0,".",0,".",".",".",0,".",0,".","|",".",".",3,".",3,".",".",".",5,".",5,".",".",".",3,".",3,".","|",".",".",2,".",".",2,".",".",".",".","|",3,".",".",".","|"],[".",0,".",0,".",".",".",0,".",0,".",".",".",0,"|",".",0,".",".",".",0,".",0,".",".",".",0,".",0,".",".",".",0,"|",".",4,".",4,".",".",".",".",4,".","|",5,".",".",".","|"],[".",".",".",".",".",".",".",".",".",".",".",".",".",".","|",".",".",".",".",".",".",".",".",".",".",".",".",".",".",".",".",".",".","|",".",".",".",".",".",".",".",0,".",".","|",".",".",".",".","|"],[".",".",5,".",".",".",".",".",5,".",".",".",".",".","|",5,".",".",".",".",".",5,".",".",".",".",".",5,".",".",".",".",".","|",4,".",".",".",".",".",0,".",".",".","|",".",".",".",".","|"]],[[".",".",0,".",2,".","|",".",".",".",".","|",".",".",".",".",0,".",".",".",".","|",".",".",".",".",".","|",".",".",".",".",7,".",0,".",0,"|",".",".",0,".",".",".","|",".",".",".",5,2,"|"],[".",3,".",3,".",3,"|",".",2,3,2,"|",".",0,2,0,".",0,".",0,".","|",".",".",".",".",".","|",".",7,8,7,".",7,".",7,".","|",".",".",".",".",".",".","|",".",".",".",".",3,"|"],[2,".",".",".",".",".","|",0,".",".",".","|",0,".",".",".",".",".",2,".",2,"|",".",0,2,0,".","|",".",".",".",".",".",".",".",".",".","|",".",7,".",7,6,".","|",".",".",".",5,".","|"],[4,".",".",".",".",".","|",2,".",".",".","|",0,".",".",".",".",".",".",".",".","|",".",".",".",".",4,"|",".",".",".",".",".",".",".",".",".","|",".",".",".",".",".",".","|",".",".",4,".",".","|"],[".",".",".",".",".",".","|",".",".",".",".","|",".",".",".",".",".",".",4,".",".","|",2,".",".",".",1,"|",0,".",".",".",".",".",".",".",".","|",".",".",".",".",".",0,"|",".",1,".",".",".","|"],[".",".",".",".",".",".","|",".",".",".",".","|",".",".",".",".",".",".",".",".",".","|",".",".",".",".",".","|",".",".",".",".",".",".",5,".",".","|",4,".",".",".",2,".","|",0,".",".",".",".","|"]],[[".",0,2,0,"|",".",".",0,5,2,"|",".",".",2,".",".","|",".",".",".",7,".","|",".",".",".",10,7,"|",".",".",9,5,".","|",".",".",".",2,".",".",".",".",".",2,".",".",".",".",".",2,"|"],[".",0,".",".","|",".",3,".",".",3,"|",".",5,".",5,3,"|",".",".",".",7,7,"|",".",8,10,8,8,"|",".",12,".",".",".","|",".",".",3,".",3,".",".",".",2,".",2,".",".",".",3,".","|"],[".",0,".",".","|",".",".",".",5,".","|",".",".",".",".",".","|",".",7,9,7,7,"|",".",7,".",9,9,"|",".",12,".",".",".","|",".",2,".",".",".",2,".",2,".",".",".",2,".",2,".",".","|"],[0,".",".",".","|",".",4,".",".",".","|",".",4,".",".",".","|",".",7,".",".",7,"|",".",9,".",".",".","|",".",".",".",".",7,"|",".",".",".",".",".",".",".",".",".",".",".",".",".",".",".",".","|"],[".",".",".",".","|",0,".",".",".",".","|",2,".",".",".",".","|",9,".",".",".",".","|",7,".",".",".",".","|",0,".",".",".",".","|",".",".",".",".",".",".",".",".",".",".",".",".",".",".",".",".","|"],[5,".",".",".","|",".",".",".",".",".","|",".",".",".",".",".","|",".",".",".",".",".","|",".",".",".",".",".","|",".",".",".",".",".","|",0,".",".",".",".",".",4,".",".",".",".",".",0,".",".",".","|"]],[[".",".","|",".",".",".",2,".",".",8,".",".",".",".",".",".","|",".",".",".",2,".",".",".",".",".",2,".",".",".",".",".",2,".",".",".",".",".",2,".",".","|",8,".",".",".",".",".",".","|"],[3,".","|",".",".",2,".",2,".",".",".",".",6,".",".",".","|",".",".",3,".",3,".",".",".",2,".",2,".",".",".",3,".",3,".",".",".",2,".",2,".","|",".",".",".",6,".",".",".","|"],[".",2,"|",".",2,".",".",".",2,".",".",5,".",5,".",7,"|",".",2,".",".",".",2,".",2,".",".",".",2,".",2,".",".",".",2,".",2,".",".",".",2,"|",".",".",5,".",5,".",7,"|"],[".",".","|",".",".",".",".",".",".",".",7,".",".",".",7,".","|",".",".",".",".",".",".",".",".",".",".",".",".",".",".",".",".",".",".",".",".",".",".",".",".","|",".",7,".",".",".",7,".","|"],[".",".","|",".",".",".",".",".",".",0,".",".",".",".",".",".","|",".",".",".",".",".",".",".",".",".",".",".",".",".",".",".",".",".",".",".",".",".",".",".",".","|",0,".",".",".",".",".",".","|"],[".",".","|",4,".",".",".",".",".",".",".",".",".",".",".",".","|",0,".",".",".",".",".",4,".",".",".",".",".",0,".",".",".",".",".",4,".",".",".",".",".","|",".",".",".",".",".",".",".","|"]],[[8,".",".",".",".",".",".",13,5,".",".",".",".",".",".",".",".",5,"|"],[".",".",".",".",".",".",".",".",".",".",".",".",2,7,".",".",7,".","|"],[".",".",".",6,".",".",".",".",".",".",".",1,".",".",".",7,".",".","|"],[".",".",5,".",5,".",7,".",".",".",0,".",".",".",7,".",".",".","|"],[0,7,".",".",".",7,".",12,".",0,".",".",".",".",".",".",".",".","|"],[".",".",".",".",".",".",".",".",0,".",".",".",".",".",".",".",".",".","|"]]],"numberofstrings":6,"notes":["E","B","G","D","A","D"],"capo":0,"stringnotes":["E3","B2","G2","D2","A1","D1"],"comments":["Stave 1:","Stave 2:","Stave 3:","Stave 4:","Stave 5:","Stave 6:","Stave 7:","Stave 8:","Stave 9:","Stave 10:","Stave 11:","Stave 12:","Stave 13:","Stave 14:","Stave 15:"],"timing":[[null,null,null,null,null,null,null,null,null,null,"W","W","W","W","W","W","W",null,"W","W","W","W",null,"W","W","W","W","W","W","W","W","W",null,"W","W","W","W","W",null,"W","W","W","W","W","W","W","W","W",null,"W","W","W"],["W","W","W","W","W","W",null,"W","W","W","W","W","W","W","W","W",null,"W","W","W","W","W",null,"W","W","W","W","H",null,"H","H","H","H","H","H",null,"H","H","H","H","H","H",null,"H","H","H","H","H","H","H","H"],["H","H","H","H","H","H","H","H","H","H","H","H","H","H",null,"H","H","H","H","H","H","H","H","H","H","H","H","H","H",null,"H","H","H","H","H","H",null,"H","H","H","H","H","H","H",null,"H","H","H","H","H","H"],["H","H","H","H","H","H","H","H","H",null,"H","H",null,"H","H",null,"H","H","H","H","H","H","H","H","H","H","H","H","W","W","W","W","W","W","W","W","W","W","W","W","W","W","W","W","W","W","W","H","W","W","W"],["H","H","H",null,"H","H","H","H","H","H","H","H","H","H","H","H","H","H","H","H","H","H",null,"H","H","H","H","H","H","H","H","H","H","H","H","H","H","H","H","H","W",null,"W","W","W","W","W","W","W","W","W"],["W","W","W","W","W","W","W","W",null,"W","W","W","W","W","W","W","W","W","W","W","W","W","W","W","W","W","W",null,"W","W","W","W","W","W","W","W","W","W","W","W","W","W","W","W","W","W"],["W","W","W","W","W","W","W","W","W","W","W","W","W","W","W","W","W","W",null,"W","W","W","W","W","W","W","W","W","W","W","W","W","W","W","W","W","W",null,"W","W","W","W","W","W","W","W","W","W","W","W","W"],["W","W","W","W","W",null,"W","W","W","W","W","W","W","W","W","W","W","W","W","W","W","W","W","W",null,"W","W","W","W","W","W","W","W","W","W","W","W","W","W","W","W","W","W",null,"W","W","W","W","W","W","W"],["W","W","W","W","W","W","W","W","W","W","W",null,"W","W","W","W","W","W","W","W","W","W","W","W","W","W","W","W","W","W","W","W","W","W","W","W","W","W",null,"W","W","W","W","W","W","W","W"],["W","W","W","W","W","W","W","W","W","W","W","W","W",null,"W","W","W","W","W","W","W","W",null,"W","W","W","W","W","W","W","W","W","W","W","W","W","W","W","W",null,"W","W","W","W","W","W",null,"W","W","W","W"],["W","W","W","W","W","W","W","W","W","W","W","W","W","W",null,"W","W","W","W","W","W","W","W","W","W","W","W","W","W","W","W","W","W",null,"W","W","W","W","W","W","W","W","W","W",null,"W","W","W","W"],["W","W","W","W","W","W",null,"W","W","W","W",null,"W","W","W","W","W","W","W","W","W",null,"W","W","W","W","W",null,"W","W","W","W","W","W","W","W","W","W","W","W","W","W","W","W",null,"W","W","W","W","W"],["W","W","W","W",null,"W","W","W","W","W","W","W","W","W","W","W",null,"W","W","W","W","W",null,"W","W","W","W","W",null,"W","W","W","W","W",null,"W","W","W","W","W","W","W","W","W","W","W","W","W","W","W","W"],["W","W",null,"W","W","W","W","W","W","W","W","W","W","W","W","W",null,"W","W","W","W","W","W","W","W","W","W","W","W","W","W","W","W","W","W","W","W","W","W","W","W",null,"W","W","W","W","W","W","W"],["W","W","W","W","W","W","W","W","W","W","W","W","W","W","W","W","W","W"]],"timingvisible":false,"tabcounter":19,"stave":14,"totalstaves":15,"instrument":"6guitar","selectedtuning":"Drop D","version":"13"}

Member for

5 days 19 hours
Submitted by AlMac on Wed, 2020-09-16 08:03