Bass Octaves and 5ths

Chords

01234567891011121314151617181920212223
E
B
G
D
A
E
B
0 1 2 3 4 5 6 7 8 9 10 11 12 13 14 15 16 17 18 19 20 21 22 23
(/) Slide Up  (\) Slide Down  (h) Hammer On  (p) Pull Off  (b) Bend (r) Release (v) Vibrato

Stave 1:

G|----------------------------------------------------------------------------------
D|----------------------------------------------------------------------------------
A|-----7-----7-----7-----7--12------12------12------12------0-----0-----0-----0-----
E|--5-----5-----5-----5---------12------12------12------12-----0-----0-----0-----0--

Stave 2:

G|------------------------------14------14------14------14-----2-----2-----2-----2--
D|-----7-----7-----7-----7----------------------------------------------------------
A|--------------------------12------12------12------12------0-----0-----0-----0-----
E|--5-----5-----5-----5-------------------------------------------------------------

							http://www.guitartabcreator.com
Instruments
{"strings":[[[".",".",".",".",".",".",".",".",".",".",".",".",".",".",".",".",".",".",".",".",".",".",".","."],[".",".",".",".",".",".",".",".",".",".",".",".",".",".",".",".",".",".",".",".",".",".",".","."],[".",7,".",7,".",7,".",7,12,".",12,".",12,".",12,".",0,".",0,".",0,".",0,"."],[5,".",5,".",5,".",5,".",".",12,".",12,".",12,".",12,".",0,".",0,".",0,".",0]],[[".",".",".",".",".",".",".",".",".",14,".",14,".",14,".",14,".",2,".",2,".",2,".",2],[".",7,".",7,".",7,".",7,".",".",".",".",".",".",".",".",".",".",".",".",".",".",".","."],[".",".",".",".",".",".",".",".",12,".",12,".",12,".",12,".",0,".",0,".",0,".",0,"."],[5,".",5,".",5,".",5,".",".",".",".",".",".",".",".",".",".",".",".",".",".",".",".","."]]],"numberofstrings":4,"notes":["G","D","A","E"],"capo":0,"stringnotes":["G2","D2","A1","E1"],"comments":["Stave 1:","Stave 2:"],"timing":[["W","W","W","W","W","W","W","W","W","W","W","W","W","W","W","W","W","W","W","W","W","W","W","W"],["W","W","W","W","W","W","W","W","W","W","W","W","W","W","W","W","W","W","W","W","W","W","W","W"]],"timingvisible":false,"tabcounter":24,"stave":1,"totalstaves":2,"instrument":"4bass","selectedtuning":"4bass","version":"13"}

Member for

1 month 1 week
About Me
SInger/songwriter. Guitar teacher.
Submitted by allegedsongsmith on Sat, 2020-06-27 08:07