Sound will begin in 5 seconds

Poncho Jam'ers - Funky Flow (Guitarra Solo)

Chords
01234567891011121314151617181920212223
E
B
G
D
A
E
B
0 1 2 3 4 5 6 7 8 9 10 11 12 13 14 15 16 17 18 19 20 21 22 23
Song Science #1: How Pros Use 6 Chords to Write Hit Songs
(/) Slide Up  (\) Slide Down  (h) Hammer On  (p) Pull Off  (b) Bend (r) Release (v) Vibrato

Stave 1:

E|-------3---------------------------------------------------------------
B|---------------5--3-------------------6-----------5--3-----------------
G|--3b5-----5r3--5--3-----------3--5/7-----7--5--3--5--3--3--3--3--3-----
D|---------------------3--3--5----------------------------3--3--5--5--3--
A|-----------------------------------------------------------------------
E|-----------------------------------------------------------------------

Stave 2:

E|----------------------------------------------------------------------------------------------
B|-----------------------------------18---------------------------------------------------------
G|----------15--17b18r17--15--17b19------17r15--17b18r17b18r17b18r17b18r17--15------15--15--15--
D|--15--17----------------------------------------------------------------------17--15--17--15--
A|----------------------------------------------------------------------------------------------
E|----------------------------------------------------------------------------------------------

Stave 3:

E|------------------------------------------------------------------------------------------
B|--------------------------------------------------11--------------------------------------
G|--12--12--12--10--12--12--12--12----------10--12------12--12--12--12------------------10--
D|--12--12--12--10--12--12--12--12--10--12------------------12--12--12----------10--12------
A|--10--10--10--10--10--10--10--10--------------------------10--10--10--10--12--------------
E|------------------------------------------------------------------------------------------

Stave 4:

E|-------------------------------
B|-------------------------------
G|--12--12--12-------------------
D|--12--12--12--11--10-----------
A|--10--10--10----------13--10v--
E|-------------------------------

http://www.guitartabcreator.com
Guitar Tab Creator is intended to store guitar tab created through the tool. It currently does not support in-line text editing. Any text you place in here will be lost. If you need to comment on your tab, please use the "Tab Notes" section located below.