The Ocean and the Butterfly

Chords

01234567891011121314151617181920212223
E
B
G
D
A
E
B
0 1 2 3 4 5 6 7 8 9 10 11 12 13 14 15 16 17 18 19 20 21 22 23
(/) Slide Up  (\) Slide Down  (h) Hammer On  (p) Pull Off  (b) Bend (r) Release (v) Vibrato

Stave 1:

E|--------0--0-----------0--0-----
B|--------0--1--3--------0--1--3--
G|--------0--0-----------0--0-----
D|--5-----2--2--4--5-----2--2--4--
A|--5-----2--3--5--5-----2--3--5--
E|--3--2--0--------3--2--0--------

Stave 2:

E|----------------------------
B|----------------------------
G|----------------------------
D|--5--7--9--10--5--7--9--10--
A|--5--7--9--10--5--7--9--10--
E|--3--5--7--8---3--5--7--8---

Stave 3:

E|--------0-----
B|--------1-----
G|-----2--0-----
D|--5--3--2-----
A|--5--3--3-----
E|--3--1--------

							http://www.guitartabcreator.com
Instruments
{"strings":[[[".",".",0,0,".",".",".",0,0,"."],[".",".",0,1,3,".",".",0,1,3],[".",".",0,0,".",".",".",0,0,"."],[5,".",2,2,4,5,".",2,2,4],[5,".",2,3,5,5,".",2,3,5],[3,2,0,".",".",3,2,0,".","."]],[[".",".",".",".",".",".",".","."],[".",".",".",".",".",".",".","."],[".",".",".",".",".",".",".","."],[5,7,9,10,5,7,9,10],[5,7,9,10,5,7,9,10],[3,5,7,8,3,5,7,8]],[[".",".",0,"_"],[".",".",1,"_"],[".",2,0,"_"],[5,3,2,"_"],[5,3,3,"_"],[3,1,".","_"]]],"numberofstrings":6,"notes":["E","B","G","D","A","E","B"],"capo":0,"stringnotes":["E4","B3","G3","D3","A2","E2"],"comments":["Stave 1:","Stave 2:","Stave 3:"],"timing":[[null,null,null,null,null,"W","W","W","W","W"],["W","W","W","W","W","W","W","W"],["W","W","W"]],"timingvisible":false,"tabcounter":4,"stave":2,"totalstaves":3,"instrument":"6guitar","selectedtuning":"6_standard","version":"13"}

Member for

1 month 2 weeks
Submitted by alexsohani on Mon, 2020-10-19 09:47