Sound will begin in 5 seconds

Gliding

Chords
01234567891011121314151617181920212223
E
B
G
D
A
E
B
0 1 2 3 4 5 6 7 8 9 10 11 12 13 14 15 16 17 18 19 20 21 22 23
(/) Slide Up  (\) Slide Down  (h) Hammer On  (p) Pull Off  (b) Bend (r) Release (v) Vibrato

Capo Fret 2

Stave 1:

E|----------------------------------------------|----------------------------------------------|--
B|--------------0--------3p0-----------0--------|--------------0--------3p0-----------0--------|--
G|--------5--------5-------------5--------5-----|--------2--------2-------------2--------2-----|--
D|-----5--------------5-------5--------------5--|-----0--------------0-------0--------------0--|--
A|----------------------------------------------|--3--------3-----------3----------3-----------|--
E|--5--------5-----------5----------5-----------|----------------------------------------------|--

Stave 2:

E|----------------------------------------------------------------------------------------|--
B|--------------0--------3p0-----------0--------1p0-----------0---------------------------|--
G|--------2--------2-------------2--------2-------------0--------0-----2p0----------------|--
D|-----0--------------0-------0--------------0-------0--------------0-------0-----2p0-----|--
A|----------------------------------------------------------------------------------------|--
E|--3--------3-----------3----------3-----------3----------3-----------3-------3-------3--|--

Stave 3:

E|----------------------------------------------|-----------------------------------------|--
B|--------------0--------3p0-----------0--------|--------------0--------------------------|--
G|--------5--------5-------------5--------5-----|--------2--------2-----2/4\2p0-----------|--
D|-----5--------------5-------5--------------5--|-----0--------------0-----------0h2h4p0--|--
A|----------------------------------------------|--3--------3-----------------------------|--
E|--5--------5-----------5----------5-----------|-----------------------------------------|--

Stave 4:

E|----------------------------------------------------------------------------------------|--
B|--------------0--------3p0-----------0--------1p0-----------0---------------------------|--
G|--------2--------2-------------2--------2-------------0--------0-----2p0----------------|--
D|-----0--------------0-------0--------------0-------0--------------0-------0-----2p0-----|--
A|----------------------------------------------------------------------------------------|--
E|--3--------3-----------3----------3-----------3----------3-----------3-------3-------3--|--

Stave 5:

E|----------------------------|-------------------------------------|--
B|--------------3-----3/5--3--|--------------5-----5/7--8p7--5\3p0--|--
G|--------5-------------------|--------7----------------------------|--
D|-----5----------------------|-----7-------------------------------|--
A|----------------------------|-------------------------------------|--
E|--5-------------------------|--7----------------------------------|--

Stave 6:

E|---------------------------------------------|--------------------------------|--
B|--------------0--------3p0--------1p0--------|--------------0--------------0--|--
G|--------2-----------2-------2----------0-----|--------2--------------2--------|--
D|-----0-------------------------0----------0--|-----0--------------0-----------|--
A|--3------------------------------------------|--------------------------------|--
E|---------------------------------------------|--3--------------2--------------|--

							http://www.guitartabcreator.com
Note:

Let notes ring in first 4 staves.

Guitar Tab Creator is intended to store guitar tab created through the tool. It currently does not support in-line text editing. Any text you place in here will be lost. If you need to comment on your tab, please use the "Tab Notes" section located below.