Sound will begin in 5 seconds

Not a Vegan guitare 1

Chords
01234567891011121314151617181920212223
E
B
G
D
A
E
B
0 1 2 3 4 5 6 7 8 9 10 11 12 13 14 15 16 17 18 19 20 21 22 23
(/) Slide Up  (\) Slide Down  (h) Hammer On  (p) Pull Off  (b) Bend (r) Release (v) Vibrato

Stave 1:

E|--2-----|--|--
B|--3--2--|--|--
G|--2--2--|--|--
D|-----2--|--|--
A|--------|--|--
E|--------|--|--

Stave 2:

E|--7--5-----|--|--
B|--7--5--2--|--|--
G|--7--5--2--|--|--
D|--7--5--2--|--|--
A|--5--3--0--|--|--
E|-----------|--|--

Stave 3:

E|--3--5--|--|--
B|--3--5--|--|--
G|--4--6--|--|--
D|--5--7--|--|--
A|--5--7--|--|--
E|--3--5--|--|--

Stave 4:

E|--12--10--5--|--|--3--5--|--|--
B|--12--10--5--|--|--3--5--|--|--
G|--12--10--6--|--|--4--6--|--|--
D|--12--11--5--|--|--5--7--|--|--
A|--10--12--7--|--|--5--7--|--|--
E|------10--5--|--|--3--5--|--|--

Stave 5:

E|--10--5--3--5--|--|--
B|--10--5--3--5--|--|--
G|--11--6--4--6--|--|--
D|--10--5--3--5--|--|--
A|--12--7--5--7--|--|--
E|--10--5--3--5--|--|--

http://www.guitartabcreator.com
Guitar Tab Creator is intended to store guitar tab created through the tool. It currently does not support in-line text editing. Any text you place in here will be lost. If you need to comment on your tab, please use the "Tab Notes" section located below.