Sound will begin in 5 seconds

don't_want_to_guitare_2

Chords
01234567891011121314151617181920212223
E
B
G
D
A
E
B
0 1 2 3 4 5 6 7 8 9 10 11 12 13 14 15 16 17 18 19 20 21 22 23
Song Science #1: How Pros Use 6 Chords to Write Hit Songs
(/) Slide Up  (\) Slide Down  (h) Hammer On  (p) Pull Off  (b) Bend (r) Release (v) Vibrato

Stave 1:

E|-----12--10--10--5-----|--
B|-----12--10--10--5-----|--
G|-----12--10--11--6-----|--
D|-----12--10--10--7-----|--
A|-----10--8---12--7-----|--
E|-------------10--5-----|--

Stave 2:

E|-----12--10--12--5-----|--------10--12--5-----|--------3--10--5--
B|-----12--10--12--5-----|--------10--12--5-----|-----2--3--10--5--
G|-----13--11--12--6-----|-----0--11--12--6-----|-----2--4--11--6--
D|-----12--10--12--7-----|--------10--12--7-----|-----2--5--10--7--
A|-----14--12--10--7-----|-----2--12--10--7-----|--------5--12--7--
E|-----12--10------5-----|--------10------5-----|--------3--10--5--

Stave 3:

E|--
B|--
G|--
D|--
A|--
E|--

Stave 4:

E|-----12--10--------|--5-----|--5-----|--
B|--2--12--10--2-----|--5--2--|--5--2--|--
G|--2--12--11--2-----|--6--2--|--6--2--|--
D|--2--12--10--2-----|--7--2--|--7--2--|--
A|-----10--12--------|--7-----|--7-----|--
E|---------10--------|--5-----|--5-----|--

Stave 5:

E|--
B|--
G|--
D|--
A|--
E|--

http://www.guitartabcreator.com
Guitar Tab Creator is intended to store guitar tab created through the tool. It currently does not support in-line text editing. Any text you place in here will be lost. If you need to comment on your tab, please use the "Tab Notes" section located below.