Sound will begin in 5 seconds

don't want to guitare 1

Chords
01234567891011121314151617181920212223
E
B
G
D
A
E
B
0 1 2 3 4 5 6 7 8 9 10 11 12 13 14 15 16 17 18 19 20 21 22 23
Song Science #1: How Pros Use 6 Chords to Write Hit Songs
(/) Slide Up  (\) Slide Down  (h) Hammer On  (p) Pull Off  (b) Bend (r) Release (v) Vibrato

Stave 1:

E|--5--12--10--10-----|--
B|--5--12--10--10-----|--
G|--6--12--11--10-----|--
D|--7--12--10--11-----|--
A|--7--10--12--12-----|--
E|--5------10--12-----|--

Stave 2:

E|--14--12--10--10-----|--------3--10--10-----|--
B|--14--12--10--10-----|-----2--3--10--10-----|--
G|--14--12--11--10-----|-----2--4--11--10-----|--
D|--14--12--10--11-----|-----2--5--10--11-----|--
A|--12--10--12--12-----|--------5--12--12-----|--
E|----------10--12-----|--------3--10--12-----|--

Stave 3:

E|--
B|--
G|--
D|--
A|--
E|--

Stave 4:

E|--14--12--10-----|--5-----|--5--3--10--10--
B|--14--12--10--2--|--5--2--|--5--3--10--10--
G|--14--12--11--2--|--6--2--|--6--4--11--10--
D|--14--12--10--2--|--7--2--|--7--5--10--11--
A|--12--10--12-----|--7-----|--7--5--12--12--
E|----------10-----|--5-----|--5--3--10--12--

Stave 5:

E|--
B|--
G|--
D|--
A|--
E|--

http://www.guitartabcreator.com
Guitar Tab Creator is intended to store guitar tab created through the tool. It currently does not support in-line text editing. Any text you place in here will be lost. If you need to comment on your tab, please use the "Tab Notes" section located below.