el presente jv

Chords

01234567891011121314151617181920212223
E
B
G
D
A
E
B
0 1 2 3 4 5 6 7 8 9 10 11 12 13 14 15 16 17 18 19 20 21 22 23
(/) Slide Up  (\) Slide Down  (h) Hammer On  (p) Pull Off  (b) Bend (r) Release (v) Vibrato

Stave 1:

G|--------------------------------------------------------------
D|-----4-----4-----------------------4-----4--------------------
A|--2-----2-----2-----4-----4-----2-----2-----2-----4-----4-----
E|-----------------2-----2-----2-----------------2-----2-----2--

Stave 2:

G|--------------------------------------------------------------
D|--------------------------------4-----------2--4--------------
A|-----2-----2--------4-----4--2-----2--2--4--------4-----4-----
E|--0-----0-----0--2-----2-----------------------------2-----2--

Stave 3:

G|-------------------------------------------------------------
D|-----4-----4-----------------------4-----4-------------------
A|--2-----2-----2-----4-----4-----2-----2-----2-----4-----4----
E|-----------------2-----2-----2-----------------2-----2-----2\

Stave 4:

G|-----------------------------------------------------------------------------------------------------
D|--1-----1--------------------6-----6--4-----------1-----1--------------------6-----6--4--------------
A|-----1-----1-----6-----6--4-----4--------4-----4-----1-----1-----6-----6--4-----4--------4-----------
E|--------------4-----4-----------------------1-----------------4-----4-----------------------0--2--0--

Stave 5:

G|-------------------------------------------
D|-------------------------------------------
A|--2--4--------2--4\9--7--------2--4--------
E|--------0--2-------------0--2--------0--2--

Stave 6:

G|-----------------------------------------------------------------------------------------
D|-----4-----4--------------------------------------------------4-----------2--4-----------
A|--2-----2-----2-----4-----4--------2-----2--------4-----4--2-----2--2--4--------4-----4--
E|-----------------2-----2-----2--0-----0-----0--2-----2-----------------------------2-----

Stave 7:

G|-----4-----------------------------
D|--4-----4--------2--4--------------
A|-----------2--4--------4-----4-----
E|--------------------------2-----2--

Stave 8:

G|--------------------------------------------------------------------------------------------------------
D|-----4-----4-----------------------------------------------4-----4-----------------------4-----2--------
A|--2-----2-----2--4-----4--------2-----2--------4-----4--2-----2-----2--4-----4--------4-----4-----2-----
E|--------------------4-----4--0-----0-----0--2-----2-----------------------4-----4--2-----------------0--

Stave 9:

G|-------------------------------------------------------------------------------------
D|-----------------------------------4-----4--------------------------------------4----
A|-----2-----2--------4-----4-----2-----2-----2--4-----4--------2-----2--------4-----4/
E|--0-----0-----0--2-----2-----2--------------------4-----4--0-----0-----0--2----------

Stave 10:

G|-----------------------------------------------------------
D|-----4-----4-----------------------4-----4-----------------
A|--2-----2-----2-----4-----4-----2-----2-----2-----4-----4--
E|-----------------2-----2-----2-----------------2-----2-----

Stave 11:

G|--------------------------------6-----------
D|--1-----1--------------------6-----4--------
A|-----1-----1-----6-----6--4-----------4-----
E|--------------4-----4--------------------2--

							http://www.guitartabcreator.com
Instruments
{"strings":[[[".",".",".",".",".",".",".",".",".",".",".",".",".",".",".",".",".",".",".","."],[".",4,".",4,".",".",".",".",".",".",".",4,".",4,".",".",".",".",".","."],[2,".",2,".",2,".",4,".",4,".",2,".",2,".",2,".",4,".",4,"."],[".",".",".",".",".",2,".",2,".",2,".",".",".",".",".",2,".",2,".",2]],[[".",".",".",".",".",".",".",".",".",".",".",".",".",".",".",".",".",".",".","."],[".",".",".",".",".",".",".",".",".",".",4,".",".",".",2,4,".",".",".","."],[".",2,".",2,".",".",4,".",4,2,".",2,2,4,".",".",4,".",4,"."],[0,".",0,".",0,2,".",2,".",".",".",".",".",".",".",".",".",2,".",2]],[[".",".",".",".",".",".",".",".",".",".",".",".",".",".",".",".",".",".",".",".","."],[".",4,".",4,".",".",".",".",".",".",".",4,".",4,".",".",".",".",".",".","."],[2,".",2,".",2,".",4,".",4,".",2,".",2,".",2,".",4,".",4,".","."],[".",".",".",".",".",2,".",2,".",2,".",".",".",".",".",2,".",2,".",2,"\\"]],[[".",".",".",".",".",".",".",".",".",".",".",".",".",".",".",".",".",".",".",".",".",".",".",".",".",".",".",".",".",".",".",".","."],[1,".",1,".",".",".",".",".",".",6,".",6,4,".",".",".",1,".",1,".",".",".",".",".",".",6,".",6,4,".",".",".","."],[".",1,".",1,".",6,".",6,4,".",4,".",".",4,".",4,".",1,".",1,".",6,".",6,4,".",4,".",".",4,".",".","."],[".",".",".",".",4,".",4,".",".",".",".",".",".",".",1,".",".",".",".",".",4,".",4,".",".",".",".",".",".",".",0,2,0]],[[".",".",".",".",".",".",".",".",".",".",".",".",".",".","."],[".",".",".",".",".",".",".",".",".",".",".",".",".",".","."],[2,4,".",".",2,4,"\\",9,7,".",".",2,4,".","."],[".",".",0,2,".",".",".",".",".",0,2,".",".",0,2]],[[".",".",".",".",".",".",".",".",".",".",".",".",".",".",".",".",".",".",".",".",".",".",".",".",".",".",".",".","."],[".",4,".",4,".",".",".",".",".",".",".",".",".",".",".",".",".",".",".",".",4,".",".",".",2,4,".",".","."],[2,".",2,".",2,".",4,".",4,".",".",2,".",2,".",".",4,".",4,2,".",2,2,4,".",".",4,".",4],[".",".",".",".",".",2,".",2,".",2,0,".",0,".",0,2,".",2,".",".",".",".",".",".",".",".",".",2,"."]],[[".",4,".",".",".",".",".",".",".",".","."],[4,".",4,".",".",2,4,".",".",".","."],[".",".",".",2,4,".",".",4,".",4,"."],[".",".",".",".",".",".",".",".",2,".",2]],[[".",".",".",".",".",".",".",".",".",".",".",".",".",".",".",".",".",".",".",".",".",".",".",".",".",".",".",".",".",".",".",".",".","."],[".",4,".",4,".",".",".",".",".",".",".",".",".",".",".",".",".",".",".",4,".",4,".",".",".",".",".",".",".",4,".",2,".","."],[2,".",2,".",2,4,".",4,".",".",2,".",2,".",".",4,".",4,2,".",2,".",2,4,".",4,".",".",4,".",4,".",2,"."],[".",".",".",".",".",".",4,".",4,0,".",0,".",0,2,".",2,".",".",".",".",".",".",".",4,".",4,2,".",".",".",".",".",0]],[[".",".",".",".",".",".",".",".",".",".",".",".",".",".",".",".",".",".",".",".",".",".",".",".",".",".",".",".","."],[".",".",".",".",".",".",".",".",".",".",".",4,".",4,".",".",".",".",".",".",".",".",".",".",".",".",4,".","."],[".",2,".",2,".",".",4,".",4,".",2,".",2,".",2,4,".",4,".",".",2,".",2,".",".",4,".",4,"/"],[0,".",0,".",0,2,".",2,".",2,".",".",".",".",".",".",4,".",4,0,".",0,".",0,2,".",".",".","."]],[[".",".",".",".",".",".",".",".",".",".",".",".",".",".",".",".",".",".","."],[".",4,".",4,".",".",".",".",".",".",".",4,".",4,".",".",".",".","."],[2,".",2,".",2,".",4,".",4,".",2,".",2,".",2,".",4,".",4],[".",".",".",".",".",2,".",2,".",2,".",".",".",".",".",2,".",2,"."]],[[".",".",".",".",".",".",".",".",".",".",6,".",".","."],[1,".",1,".",".",".",".",".",".",6,".",4,".","."],[".",1,".",1,".",6,".",6,4,".",".",".",4,"."],[".",".",".",".",4,".",4,".",".",".",".",".",".",2]]],"numberofstrings":4,"notes":["G","D","A","E"],"capo":0,"stringnotes":["G2","D2","A1","E1"],"comments":["Stave 1:","Stave 2:","Stave 3:","Stave 4:","Stave 5:","Stave 6:","Stave 7:","Stave 8:","Stave 9:","Stave 10:","Stave 11:"],"timing":[["W","W","W","W","W","W","W","W","W","W","W","W","W","W","W","W","W","W","W","W","W","W","W","W","W","W","W","W","W","W","W","W","W","W","W","W"],["W","W","W","W","W","W","W","W","W","W","W","W","W","W","W","W","W","W","W","W"],["W","W","W","W","W","W","W","W","W","W","W","W","W","W","W","W","W","W","W","W",null,"W"],["W","W","W","W","W","W","W","W","W","W","W","W","W","W","W","W","W","W","W","W","W","W","W","W","W","W","W","W","W","W","W","W","W"],["W","W","W","W","W","W",null,"W","W","W","W","W","W","W","W"],["W","W","W","W","W","W","W","W","W","W","W","W","W","W","W","W","W","W","W","W","W","W","W","W","W","W","W","W","W"],["W","W","W","W","W","W","W","W","W","W","W","W","W","W","W","W","W","W","W","W","W","W","W","W","W","W","W","W","W","W"],["W","W","W","W","W","W","W","W","W","W","W","W","W","W","W","W","W","W","W","W","W","W","W","W","W","W","W","W","W","W","W","W","W","W"],["W","W","W","W","W","W","W","W","W","W","W","W","W","W","W","W","W","W","W","W","W","W","W","W","W","W","W","W"],["W","W","W","W","W","W","W","W","W","W","W","W","W","W","W","W","W","W","W"],["W","W","W","W","W","W","W","W","W","W","W","W","W","W"]],"timingvisible":false,"tabcounter":14,"stave":10,"totalstaves":11,"instrument":"4bass","selectedtuning":"4bass","version":"13"}

Member for

1 year
Submitted by AlexMiar on Fri, 2020-10-23 17:31