Sound will begin in 5 seconds

We Follow - From Indian Lakes

Chords
01234567891011121314151617181920212223
E
B
G
D
A
E
B
0 1 2 3 4 5 6 7 8 9 10 11 12 13 14 15 16 17 18 19 20 21 22 23
Song Science #1: How Pros Use 6 Chords to Write Hit Songs
(/) Slide Up  (\) Slide Down  (h) Hammer On  (p) Pull Off  (b) Bend (r) Release (v) Vibrato

Stave 1:

E|-----------------------------------------------------------------------------------
B|-----------------------------------------------------------9--------9--------9-----
G|-----------------------------4--------4--------6-----6--------6--------6-----------
D|-------------2------------4-----6--------6--9-----9-----9--------9--------9--------
A|-----2h4--------4--2/4h7-----------7-----------------------------------------------
E|--2-------2---------------------------------------------------------------------0--

Stave 2:

E|-----------------------------------------------------------------------------------
B|-----------------------------------------------------------------------------------
G|-----------------------------------------------------------------------------------
D|--------2--------------------------2-----------------------------------------------
A|-----------4--0--2--4--2--------------4--0--2--4-----------------------------------
E|--0--2-----------------------0--2-----------------4--------------------------------

Stave 3:

E|--------------------------
B|--------------------------
G|-----6--4--------6--4-----
D|--4--6--4-----4--6--4-----
A|--4--4--2-----4--4--2-----
E|--2-----------2-----------

Stave 4:

E|-----------------------------------------------------------------------------------
B|--------------------------------------------------------------9--------9--------9--
G|--------------------------------4--------4--------6-----6--------6--------6--------
D|----------------2------------4-----6--------6--9-----9-----9--------9--------9-----
A|--------2h4--------4--2/4h7-----------7--------------------------------------------
E|--0--2-------2---------------------------------------------------------------------

Stave 5:

E|---------------------------------------
B|------------------------5--------------
G|-------------6--4----------6-----4--6--
D|-------------------6/7--------7--------
A|-----7/9-------------------------------
E|--5-------5----------------------------

Stave 6:

E|---------------------------------------------------------------------7--------
B|----------------------5-------------------------------5-----------5-----5-----
G|-------------6-----------6-----4--6-----------4/6--------6--4--------------4--
D|----------------9--6--------7--------------0-------0-----------0--------------
A|-----7/9----------------------------------------------------------------------
E|--5-------5-------------------------------------------------------------------

Stave 7:

E|-----------------------------------------------------------------------------
B|-----------------------------------------------------------------------------
G|-----------------------------------------------------------------------------
D|--------2-----------------------------------------------2--------------------
A|-----------4--0--2--4--2-----4--4--4--4--4--4--4-----------4--0--2--4--------
E|--0--2--------------------------------------------0--2-----------------4-----

Stave 8:

E|--------------------------------------------------
B|--------------------------------------------------
G|--4--x--4--4-----4--x--x--x--x--x--x--x--x--------
D|--4--x--4--4-----4--x--x--x--x--x--x--x--x--------
A|--2--x--2--2-----2--x--x--x--x--x--x--x--x--------
E|--------------------------------------------------

Stave 9:

E|------------------------------------------------------------
B|------------------------------------------------------------
G|--4--x--4--4-----4--x--x--x--x--x---------------------------
D|--4--x--4--4-----4--x--x--x--x--x--7\4--------2/4--------4--
A|--2--x--2--2-----2--x--x--x--x--x--7-4--------2-4--------4--
E|-----------------------------------5-2--------0-2--------2--

Stave 10:

E|----------------------------------------------------------------------------------------------------
B|----------------------------------------------------------------------------------------------------
G|--13--13--13----------------------------------------------------------------------------------------
D|--------------14--14--14--12--12--11--11--11--------------------------------------------------------
A|----------------------------------------------12--12--12--11--11--9--9--9---------------------------
E|---------------------------------------------------------------------------12--12--12--9--10--9--9--

Stave 11:

E|-----------------------------------------------------------------------------------------------------
B|-----------------------------------------------------------------------------------------------------
G|--------------------------------------------------------------6--6--6-----------6--6-----------------
D|--------------6--6--6-----------------4--4--4--------------------------7--7--7-----------------------
A|-----------------------7--7--7--7--7-----------5--5--5--5--5--------------------------9--9--9--9--7--
E|--9--5--5--5-----------------------------------------------------------------------------------------

Stave 12:

E|------12--------------------------------12-------------------------------------
B|----------14-----10--12--14--12-------------14-----10--12--10--9-----12--------
G|--11--------------------------------11-----------------------------------------
D|-------------------------------------------------------------------------------
A|-------------------------------------------------------------------------------
E|-------------------------------------------------------------------------------

Stave 13:

E|------12---------------------------------------12-------------------------------
B|----------14-----10--12--14--12-----14-------------14--10--12--10--9-----12-----
G|--11---------------------------------------11-----------------------------------
D|--------------------------------------------------------------------------------
A|--------------------------------------------------------------------------------
E|--------------------------------------------------------------------------------

Stave 14:

E|--------------------------------------------------
B|--------------------------------------------------
G|--4--4--4--4--4--4--4--4--4--4--4--4--4--4--4--4--
D|--4--4--4--4--4--4--4--4--4--4--4--4--4--4--4--4--
A|--2--2--2--2--2--2--2--2--2--2--2--2--2--2--2--2--
E|--------------------------------------------------

http://www.guitartabcreator.com
Guitar Tab Creator is intended to store guitar tab created through the tool. It currently does not support in-line text editing. Any text you place in here will be lost. If you need to comment on your tab, please use the "Tab Notes" section located below.