Greek avansat

Chords

01234567891011121314151617181920212223
E
B
G
D
A
E
B
0 1 2 3 4 5 6 7 8 9 10 11 12 13 14 15 16 17 18 19 20 21 22 23
(/) Slide Up  (\) Slide Down  (h) Hammer On  (p) Pull Off  (b) Bend (r) Release (v) Vibrato

Capo Fret 3

Stave 1:

E|-----------0--------0-----------0-----------------0--------0-------------------------------------------------------------------------------------
B|--------0-----0--------------0-----0-----------0-----0-------------------------------------------------------------------------------------------
G|-----0-----------0--------0-----------0-----0-----------0-----------0--2--3--5--3--2h3--0--0--2--3--5--3--2h3--0-----2--4--5--7--5--4h5--2h4-----
D|-------------------------------------------------------------------------------------------------------------------------------------------------
A|-------------------------------------------------------------------------------------------------------------------------------------------------
E|--0--------------------0-----------------0-------------------------------------------------------------------------------------------------------

Stave 2:

E|-------------------------------------------------------------------0--0--0-----0-----------0--------------------------------------------------------------
B|----------------------------1--1--1-----1--0-----0--3--3--1--------1--1--1-----1--3-----3--1--3--1--------------------------------------------------------
G|--0h2--------0--------------2--2--2-----2--0-----0--2--2--2--------0--0--0-----0--2-----2--0--2--2--------------------------------------------------------
D|-------4--2-----4--2--------2--2--2-----2--0-----0--0--0--2--------2-----------2--0-----0--2--0--2--------------------------------------------------------
A|----------------------------0--0--0-----0-----------------0--------------------------------------0--------------------------------------------------------
E|-------------------------------------------3-----3--------------------------------------------------------------------------------------------------------

							http://www.guitartabcreator.com
Instruments
{"strings":[[[".",".",".",0,".",".",0,".",".",".",0,".",".",".",".",".",0,".",".",0,".",".",".",".",".",".",".",".",".",".",".",".",".",".",".",".",".",".",".",".",".",".",".",".",".",".",".",".",".",".",".",".","."],[".",".",0,".",0,".",".",".",".",0,".",0,".",".",".",0,".",0,".",".",".",".",".",".",".",".",".",".",".",".",".",".",".",".",".",".",".",".",".",".",".",".",".",".",".",".",".",".",".",".",".",".","."],[".",0,".",".",".",0,".",".",0,".",".",".",0,".",0,".",".",".",0,".",".",".",0,2,3,5,3,2,"h",3,0,0,2,3,5,3,2,"h",3,0,".",2,4,5,7,5,4,"h",5,2,"h",4,"."],[".",".",".",".",".",".",".",".",".",".",".",".",".",".",".",".",".",".",".",".",".",".",".",".",".",".",".",".",".",".",".",".",".",".",".",".",".",".",".",".",".",".",".",".",".",".",".",".",".",".",".",".","."],[".",".",".",".",".",".",".",".",".",".",".",".",".",".",".",".",".",".",".",".",".",".",".",".",".",".",".",".",".",".",".",".",".",".",".",".",".",".",".",".",".",".",".",".",".",".",".",".",".",".",".",".","."],[0,".",".",".",".",".",".",0,".",".",".",".",".",0,".",".",".",".",".",".",".",".",".",".",".",".",".",".",".",".",".",".",".",".",".",".",".",".",".",".",".",".",".",".",".",".",".",".",".",".",".",".","."]],[[".",".",".",".",".",".",".",".",".",".",".",".",".",".",".",".",".",".",".",".",".",".",".",0,0,0,".",0,".",".",".",0,".",".",".",".",".",".",".",".",".",".",".",".",".",".",".",".",".",".",".","_"],[".",".",".",".",".",".",".",".",".",".",1,1,1,".",1,0,".",0,3,3,1,".",".",1,1,1,".",1,3,".",3,1,3,1,".",".",".",".",".",".",".",".",".",".",".",".",".",".",".",".",".","_"],[0,"h",2,".",".",0,".",".",".",".",2,2,2,".",2,0,".",0,2,2,2,".",".",0,0,0,".",0,2,".",2,0,2,2,".",".",".",".",".",".",".",".",".",".",".",".",".",".",".",".",".","_"],[".",".",".",4,2,".",4,2,".",".",2,2,2,".",2,0,".",0,0,0,2,".",".",2,".",".",".",2,0,".",0,2,0,2,".",".",".",".",".",".",".",".",".",".",".",".",".",".",".",".",".","_"],[".",".",".",".",".",".",".",".",".",".",0,0,0,".",0,".",".",".",".",".",0,".",".",".",".",".",".",".",".",".",".",".",".",0,".",".",".",".",".",".",".",".",".",".",".",".",".",".",".",".",".","_"],[".",".",".",".",".",".",".",".",".",".",".",".",".",".",".",3,".",3,".",".",".",".",".",".",".",".",".",".",".",".",".",".",".",".",".",".",".",".",".",".",".",".",".",".",".",".",".",".",".",".",".","_"]]],"numberofstrings":6,"notes":["E","B","G","D","A","E","B"],"capo":"3","stringnotes":["E4","B3","G3","D3","A2","E2"],"comments":["Stave 1:","Stave 2:"],"timing":[[null,null,null,null,null,null,null,null,null,null,null,null,null,null,null,null,null,null,null,null,null,null,null,null,null,null,null,null,null,null,null,null,null,null,null,null,null,null,null,null,null,null,null,null,null,null,null,null,null,null,null,"W","W","W"],[null,null,null,null,null,null,null,null,null,null,null,null,null,null,null,null,null,null,null,null,null,null,null,null,null,null,null,null,null,null,null,null,null,null,null,null,null,null,null,null,null,null,null,null,null,null,null,null,null,null,null,"W","W","W"]],"timingvisible":false,"tabcounter":52,"stave":1,"totalstaves":2,"instrument":"6guitar","selectedtuning":"6_standard","version":"13"}

Member for

2 months 3 weeks
Submitted by AlexHr on Tue, 2020-09-22 03:26