Sound will begin in 5 seconds

sss

01234567891011121314151617181920212223
E
B
G
D
A
E
B
0 1 2 3 4 5 6 7 8 9 10 11 12 13 14 15 16 17 18 19 20 21 22 23
Song Science #1: How Pros Use 6 Chords to Write Hit Songs
(/) Slide Up  (\) Slide Down  (h) Hammer On  (p) Pull Off  (b) Bend (r) Release (v) Vibrato

Stave 1:

E|--2p1---------------------------|---------------------------1h2--
B|-------2p1----------------------|----------------------1h2-------
G|------------2p1-----------------|-----------------1h2------------
D|-----------------2p1------------|------------1h2-----------------
A|----------------------2p1-------|-------1h2----------------------
E|---------------------------2p1--|--1h2---------------------------

Stave 2:

E|--3p2p1-------------------------------------|------------------------------
B|---------3p2p1------------------------------|------------------------------
G|----------------3p2p1-----------------------|-----------------------1h2h3--
D|-----------------------3p2p1----------------|----------------1h2h3---------
A|------------------------------3p2p1---------|---------1h2h3----------------
E|-------------------------------------3p2p1--|--1h2h3-----------------------

Stave 3:

E|---------1h2h3--
B|--1h2h3---------
G|----------------
D|----------------
A|----------------
E|----------------

http://www.guitartabcreator.com
Guitar Tab Creator is intended to store guitar tab created through the tool. It currently does not support in-line text editing. Any text you place in here will be lost. If you need to comment on your tab, please use the "Tab Notes" section located below.