Sound will begin in 5 seconds

errt

01234567891011121314151617181920212223
E
B
G
D
A
E
B
0 1 2 3 4 5 6 7 8 9 10 11 12 13 14 15 16 17 18 19 20 21 22 23
Song Science #1: How Pros Use 6 Chords to Write Hit Songs
(/) Slide Up  (\) Slide Down  (h) Hammer On  (p) Pull Off  (b) Bend (r) Release (v) Vibrato

Stave 1:

E|---------------------------5h6p5-------------------------------------------------
B|----------------------5h6---------6p5---------------------------------------5h7--
G|-----------------5h6-------------------6p5-----------------------------5h7-------
D|------------5h6-----------------------------6p5-------------------5h7------------
A|-------5h6---------------------------------------6p5---------5h7-----------------
E|--5h6-------------------------------------------------6p5h7----------------------

Stave 2:

E|--5h7p5-------------------------------------------------5h8p5----------------------
B|---------7p5---------------------------------------5h8---------8p5-----------------
G|--------------7p5-----------------------------5h8-------------------8p5------------
D|-------------------7p5-------------------5h8-----------------------------8p5-------
A|------------------------7p5---------5h8---------------------------------------8p5--
E|-----------------------------7p5h8-------------------------------------------------

Stave 3:

E|--------------------------------6h7p6--------------------------------------------
B|---------------------------6h7---------7p6---------------------------------------
G|----------------------6h7-------------------7p6-----------------------------6h8--
D|-----------------6h7-----------------------------7p6-------------------6h8-------
A|------------6h7---------------------------------------7p6---------6h8------------
E|--8p5--6h7-------------------------------------------------7p6h8-----------------

Stave 4:

E|-------6h8p6----------------------------------------------------7h8p7------------
B|--6h8---------8p6------------------------------------------7h8---------8p7-------
G|-------------------8p6--------------------------------7h8-------------------8p7--
D|------------------------8p6----------------------7h8-----------------------------
A|-----------------------------8p6------------7h8----------------------------------
E|----------------------------------8p6--7h8---------------------------------------

Stave 5:

E|-----------------
B|-----------------
G|-----------------
D|--8p7------------
A|-------8p7-------
E|------------8p7--

http://www.guitartabcreator.com
Guitar Tab Creator is intended to store guitar tab created through the tool. It currently does not support in-line text editing. Any text you place in here will be lost. If you need to comment on your tab, please use the "Tab Notes" section located below.