Sound will begin in 5 seconds

No Outlet

01234567891011121314151617181920212223
E
B
G
D
A
E
B
0 1 2 3 4 5 6 7 8 9 10 11 12 13 14 15 16 17 18 19 20 21 22 23
Song Science #1: How Pros Use 6 Chords to Write Hit Songs
(/) Slide Up  (\) Slide Down  (h) Hammer On  (p) Pull Off  (b) Bend (r) Release (v) Vibrato

Stave 1:

E|-----------------------------------------------------------------------------------
B|-----------------------------------------------------------------------------------
G|-----------------------------------------------------------------------------------
D|--0--0--10--10--10--10--0--0--12--12--12--12--0--0----------------------------------
A|--0--0--8---8---8---8---0--0--10--10--10--10--0--0--13--13--13--13--15--15--15--15--
D|--0--0--8---8---8---8---0--0--10--10--10--10--0--0--12--12--12--12--12--12--12--12--

Stave 2:

E|--------------------|--
B|--------------------|--
G|--------------------|--
D|--------------------|--
A|----13--13--13--13--|--
D|----12--12--12--12--|--

Stave 3:

E|--------------------------------------------------------------------------------
B|--------------------------------------------------------------------------------
G|--------------------------------------------------------------------------------
D|----0--0--------------0--0--------------0--0------------------------------------
A|----0--0--7--5--------0--0--7--5--7--8--0--0--7--5------------------------------
D|----0--0--------8--7--0--0--------------0--0--------8--7--5--7--8--7--5\3--3\2--

Stave 4:

E|------------------------------|--------5-----6--5-----5--6--8--6--5-----5--------|--
B|------------------------------|--5--6-----6--------6-----------------6-----6--5--|--
G|------------------------------|--------------------------------------------------|--
D|----0----------8----------10--|--------------------------------------------------|--
A|----0-------8---------10------|--------------------------------------------------|--
D|----0----8--------10----------|--------------------------------------------------|--

Stave 5:

E|----
B|----
G|----
D|----
A|----
D|----

Stave 6:

E|----
B|----
G|----
D|----
A|----
D|----

http://www.guitartabcreator.com
Guitar Tab Creator is intended to store guitar tab created through the tool. It currently does not support in-line text editing. Any text you place in here will be lost. If you need to comment on your tab, please use the "Tab Notes" section located below.