Sound will begin in 5 seconds

Oropel Intro

01234567891011121314151617181920212223
E
B
G
D
A
E
B
0 1 2 3 4 5 6 7 8 9 10 11 12 13 14 15 16 17 18 19 20 21 22 23
(/) Slide Up  (\) Slide Down  (h) Hammer On  (p) Pull Off  (b) Bend (r) Release (v) Vibrato

Stave 1:

E|---------------------------------------------------------------
B|---------------------------------------------------------------
G|---------------------------------------------------------------
D|---------------------------------------------------------------
A|-----------11--7--10--8--7--8--11--8---------------8-----------
E|--8--7--8-----------------------------11--9--8--9-----9--8--6--

Stave 2:

E|-----------------------------------------------------------------
B|-----------------------------------------------------------------
G|-----------------------------------------------------------------
D|--8--10--11--10--8------10---------------------------------------
A|--------------------11------11--8--------------------------------
E|-----------------------------------9--8--9--8--7--8--9--8--9--8--

Stave 3:

E|---------------------------------------------------------------
B|---------------------------------------------------------------
G|---------------------------------------------------------------
D|---------------------------------------------------------------
A|-----------11--7--10--8--7--8--11--8---------------8-----------
E|--8--7--8-----------------------------11--9--8--9-----9--8--6--

Stave 4:

E|-------------------------------------------------------------------------
B|-------------------------------------------------------------------------
G|-------------------------------------------------------------------------
D|--8--10--11--10--8------10-----------------------------------------------
A|--------------------11------11--8--------------------11--10--8-----------
E|-----------------------------------9--8--9--8--7--8-------------8--4--1--

Stave 5:

E|-----------------------------------------------------------------------------------------------
B|-----------------------------------------------------------2--1--------------------------------
G|--------0--1--2--3-----------0--1--3--1-----------0--1--3--------3--1--0-----------------------
D|-----3--------------------3--------------------3--------------------------3--2-----------------
A|--3--------------------4--------------------3-----------------------------------4--3--1--------
E|-----------------------------------------------------------------------------------------4--3--

Stave 6:

E|--------------
B|--------------
G|--------------
D|-----------3--
A|--------3-----
E|--1--5--------

http://www.guitartabcreator.com
Guitar Tab Creator is intended to store guitar tab created through the tool. It currently does not support in-line text editing. Any text you place in here will be lost. If you need to comment on your tab, please use the "Tab Notes" section located below.