Sound will begin in 5 seconds

I need air

Chords
01234567891011121314151617181920212223
E
B
G
D
A
E
B
0 1 2 3 4 5 6 7 8 9 10 11 12 13 14 15 16 17 18 19 20 21 22 23
Song Science #1: How Pros Use 6 Chords to Write Hit Songs
(/) Slide Up  (\) Slide Down  (h) Hammer On  (p) Pull Off  (b) Bend (r) Release (v) Vibrato

Stave 1:

E|--------------
B|--------------
G|--7--7--7--7--
D|--------------
A|--5--5--5--5--
D|--------------

Stave 2:

E|--------------
B|--------------
G|--7--7--5--5--
D|--------------
A|--5--5--3--3--
D|--------------

Stave 3:

E|--------------
B|--------------
G|--7--7--7--7--
D|--------------
A|--5--5--5--5--
D|--------------

Stave 4:

E|----------------
B|----------------
G|--3--3--14--14--
D|----------------
A|--1--1--12--12--
D|----------------

Stave 5:

E|--------
B|--------
G|--------
D|--------
A|--------
D|--------

Stave 6:

E|--------------
B|--------------
G|--8-----8--8--
D|--8-----8--8--
A|--6-----5--5--
D|--------------

Stave 7:

E|--------------------------
B|--------------------------
G|--------------------------
D|--1--1--1--1--3--3--3--3--
A|--1--1--1--1--3--3--3--3--
D|--1--1--1--1--3--3--3--3--

Stave 8:

E|---------10-------------10-------------10-------------10------
B|-----11------11-----11------11-----11------11-----11------11--
G|--8-----------------------------------------------------------
D|-----------------8--------------8--------------8--------------
A|--------------------------------------------------------------
D|--------------------------------------------------------------

Stave 9:

E|----------------------------
B|--------------11--11--------
G|--------7--7----------7--7--
D|--8--8----------------------
A|----------------------------
D|----------------------------

Stave 10:

E|----------------------------
B|--------------10--10--------
G|--------7--7----------7--7--
D|--8--8----------------------
A|----------------------------
D|----------------------------

Stave 11:

E|----------------------------
B|--------------11--11--------
G|--------7--7----------7--7--
D|--8--8----------------------
A|----------------------------
D|----------------------------

Stave 12:

E|--------------8--8--------
B|--------------------------
G|--------7--7--------7--7--
D|--8--8--------------------
A|--------------------------
D|--------------------------

Stave 13:

E|--------------
B|--------------
G|--7--7--7--7--
D|--------------
A|--5--5--5--5--
D|--------------

Stave 14:

E|--------------------
B|--------------------
G|--3--3--14--14--12--
D|--------------------
A|--1--1--12--12--10--
D|--------------------

http://www.guitartabcreator.com
Guitar Tab Creator is intended to store guitar tab created through the tool. It currently does not support in-line text editing. Any text you place in here will be lost. If you need to comment on your tab, please use the "Tab Notes" section located below.