Sound will begin in 5 seconds

Capaz de volar

Chords
01234567891011121314151617181920212223
E
B
G
D
A
E
B
0 1 2 3 4 5 6 7 8 9 10 11 12 13 14 15 16 17 18 19 20 21 22 23
Song Science #1: How Pros Use 6 Chords to Write Hit Songs
(/) Slide Up  (\) Slide Down  (h) Hammer On  (p) Pull Off  (b) Bend (r) Release (v) Vibrato

Stave 1:

E |--0h1h3h1r0--------------------0h1h3h1r0--------------------0h1h3h1r0--
B |-------------0h1/5--5--7--7/9-------------0h1/5\1r0h1r0----------------
Ab|---------------------------------------------------------0-------------
Db|-----------------------------------------------------------------------
A |-----------------------------------------------------------------------
E |-----------------------------------------------------------------------

Stave 2:

E |-----0h1h3h1r0--------------------0h9--12--11r9-----------------
B |----------------0h1/5--5--7--7/9-----------------9--12--9\7/9v--
Ab|----------------------------------------------------------------
Db|----------------------------------------------------------------
A |----------------------------------------------------------------
E |----------------------------------------------------------------

Stave 3:

E |-----0--0--0--0--
B |-----0--2--0--0--
Ab|-----3--3--3--3--
Db|-----3--3--3--3--
A |-----2--0--2--2--
E |-----0--0--0--0--

Stave 4:

E |--0--0---0---0---0--0--0--0--0--0--0--
B |--0--0---0---0---0--0--0--0--0--0--0--
Ab|--8--10--12--10--3--3--3--3--3--3--3--
Db|--8--10--12--10--3--3--3--3--3--3--3--
A |--0--0---0---0---0--0--2--0--2--0--2--
E |--------------------2--0--2--0--2--0--

Stave 5:

E |--0--0--0--0--0--0--0-------------------
B |--7--5--7--5--7--5--0-------------------
Ab|--5--7--5--7--5--7--0-------------------
Db|--0--0--0--0--0--0--7--7h5h7--7--7h5r0--
A |--0--0--0--0--0--0--7-------------------
E |----------------------------------------

Stave 6:

E |------------------------------
B |--0--0--0---------------------
Ab|--0--0--0---------0--0--0--0--
Db|--7--7--7--7h5r0--0--0--0--0--
A |--7--7--7--7---7--7--7--7--7--
E |--0--0--0--0---0--0--0--0--0--

Stave 7:

E |----------------------------------------------------------------------
B |--0--0--0--0--5--5--5--5--0--0--0--0--5--5--5--5----------------------
Ab|--0--0--0--0--5--5--5--5--0--0--0--0--5--5--5--5--0--0--0-------------
Db|--7--7--7--7--0--0--0--0--7--7--7--7--0--0--0--0--7--7--7--7h5--0--0--
A |--7--7--7--7--0--0--0--0--7--7--7--7--0--0--0--0--7--7--7--7-7--7--7--
E |--0--0--0--0--5--5--5--5--0--0--0--0--5--5--5--5--0--0--0--0-0--0--0--

Stave 8:

E |------------------------------------------------
B |----------0h5-------0h5--------0--0-------------
Ab|--0--0h7--7----0h7--7----7--0--0--0-------0-----
Db|--7-------7----7----7-------7--7--7--7h5--0--0--
A |--7-------7----7----7-------7--7--7--7-7--7--7--
E |---------------0------------0--0--0--0-0--0--0--

Stave 9:

E |--------------------------------------------------------------------------
B |-----------0-----------------0-----------------0-----------------0--------
Ab|--0--0--0-----0--0--0--0--0-----0--0--0--0-----------0--0--0-----------0--
Db|--0-----0-----0-----0-----0-----0-----5-----5-----5-----5-----5-----5-----
A |--7-----7-----7-----7-----7-----7-----7-----7-----7-----7-----7-----7-----
E |--5-----5-----5-----5-----5-----5-----7-----7-----7-----7-----7-----7-----

Stave 10:

E |--0--0--0--0--0--
B |--0--0--0--0--0--
Ab|--7--7--7--7--7--
Db|--0--0--0--0--0--
A |--7--7--7--7--7--
E |--5--5--5--5--5--

Stave 11:

E |--0--0--0--0--0--0--0--
B |--0--0--0--0--0--0--0--
Ab|--7--7--7--7--7--7--7--
Db|--5--5--5--5--5--5--5--
A |--7--7--7--7--7--7--7--
E |--7--7--7--7--7--7--7--

http://www.guitartabcreator.com
Guitar Tab Creator is intended to store guitar tab created through the tool. It currently does not support in-line text editing. Any text you place in here will be lost. If you need to comment on your tab, please use the "Tab Notes" section located below.