Sound will begin in 5 seconds

Novo Alballia

Chords
01234567891011121314151617181920212223
E
B
G
D
A
E
B
0 1 2 3 4 5 6 7 8 9 10 11 12 13 14 15 16 17 18 19 20 21 22 23
Song Science #1: How Pros Use 6 Chords to Write Hit Songs
(/) Slide Up  (\) Slide Down  (h) Hammer On  (p) Pull Off  (b) Bend (r) Release (v) Vibrato

Stave 1:

E|-------------------------------------------------------------
B|-7-7-7-7----7-7-7-7-7-7-7-7----9-9-9-9----9-9-9-9-9-9-9-9----
G|-7-7-7-7----7-7-7-7-7-7-7-7----9-9-9-9----9-9-9-9-9-9-9-9----
D|-7-7-7-7----7-7-7-7-7-7-7-7----9-9-9-9----9-9-9-9-9-9-9-9----
A|-------------------------------------------------------------
E|-------------------------------------------------------------

Stave 2:

E|------------------------------------------------------------------
B|-12-12-12-10----9-9-9-9-10-10-10-10-------------------------------
G|-9--9--9--9-----9-9-9-9-9--9--9--9-----9-9-9-9----9-9-9-9-9-9-9-9-
D|-9--9--9--9-----9-9-9-9-9--9--9--9-----7-7-7-7----7-7-7-7-7-7-7-7-
A|---------------------------------------9-9-9-9----9-9-9-9-9-9-9-9-
E|------------------------------------------------------------------

Stave 3:

E|---------------0-0----0----0---------------------0-0---------
B|-3-3----2-2----0-0----2----2-------3-3----2-2----0-0----2----
G|-2-2----2-2----1-1----1----1-------2-2----2-2----1-1----2----
D|-4-4----2-2----2-2----2----2-------4-4----2-2----2-2----2----
A|-2-2----0-0----2-2----2----2-------2-2----0-0----2-2---------
E|---------------0-0----0----0---------------------0-0----2----

Stave 4:

E|-9-x-7-x-9-9-x-7-x----12-12-x-12-x-12-12-x-12-x------------------------------
B|-7-x-7-x-7-7-x-7-x----10-10-x-9--x-10-10-x-9--x----12-12-x-10-x-12-12-x-10-x-
G|-7-x-7-x-7-7-x-7-x----9--9--x-9--x-9--9--x-9--x----9--9--x-9--x-9--9--x-9--x-
D|-7-x-7-x-7-7-x-7-x----9--9--x-9--x-9--9--x-9--x----11-11-x-11-x-11-11-x-11-x-
A|---------------------------------------------------9--9--x-9--x-9--9--x-9--x-
E|-----------------------------------------------------------------------------

Stave 5:

E|-9-9-x-9-x-9-9-x-9-x-9-|------------------------|-
B|-9-9-x-9-x-9-9-x-9-x-9-|-10-10-x-10-x-9-9-x-9-x-|-
G|-9-9-x-9-x-9-9-x-9-x-9-|-9--9--x-9--x-9-9-x-9-x-|-
D|-9-9-x-9-x-9-9-x-9-x-9-|-9--9--x-9--x-9-9-x-9-x-|-
A|-7-7-x-7-x-7-7-x-7-x-7-|-7--7--x-7--x-7-7-x-7-x-|-
E|-----------------------|------------------------|-

Stave 6:

E|------------------------------|---
B|-7-------9--------12-------10-|-9-
G|-7-------9--------9--------9--|-9-
D|-7-------9--------11-------11-|-9-
A|-9-------11-------12-------9--|-7-
E|------------------------------|---

Stave 7:

E|------------------------------------------------
B|-3-3----5-5----2-2-2----3-3----5-5----2-2-2-2-2-
G|-2-2----4-4----2-2-2----2-2----4-4----2-1-2-1-2-
D|-4-4----2-2----2-2-2----4-4----2-2----2-2-2-2-2-
A|-2-2----4-4-------------2-2----4-4------2---2---
E|---------------2-2-2------------------2-0-2-0-2-

Stave 8:

E|-------------------------------------------------------
B|-3-------5-------2-------3-------5-------2-2-2-2-2-2-2-
G|-2-------4-------2-------2-------4-------2-1-2-1-2-1-2-
D|-4-------6-------2-------4-------6-------2-2-2-2-2-2-2-
A|-2-------4---------------2-------4---------2---2---2---
E|-----------------2-----------------------2-0-2-0-2-0-2-

http://www.guitartabcreator.com
Guitar Tab Creator is intended to store guitar tab created through the tool. It currently does not support in-line text editing. Any text you place in here will be lost. If you need to comment on your tab, please use the "Tab Notes" section located below.