YBWM

01234567891011121314151617181920212223
E
B
G
D
A
E
B
0 1 2 3 4 5 6 7 8 9 10 11 12 13 14 15 16 17 18 19 20 21 22 23
(/) Slide Up  (\) Slide Down  (h) Hammer On  (p) Pull Off  (b) Bend (r) Release (v) Vibrato

Stave 1:

E|-----------------2--------------------------------
B|-----2--2-----2-----------------------------------
G|--3--------3--------3--4-----3--4--3--4--3--1-----
D|-----------------------------------------------4--
A|--------------------------------------------------
E|--------------------------------------------------

Stave 2:

E|--------4--6--4--6--4--6--4--6--4--4-----6--4--6--4--6-----
B|--7--7--------------------------------7--------------------
G|-----------------------------------------------------------
D|-----------------------------------------------------------
A|-----------------------------------------------------------
E|-----------------------------------------------------------

Stave 3:

E|--6--4-----7--6--------------------7--6--------------------
B|--------7--------4--7--7--7--4-----------------------------
G|--------------------------------6--------4--4--4--4--3--3--
D|-----------------------------------------------------------
A|-----------------------------------------------------------
E|-----------------------------------------------------------

							http://www.guitartabcreator.com
Chords

Instruments
{"strings":[[[".",".",".",".",".",2,".",".","_",".",".",".",".",".",".","."],[".",2,2,".",2,".",".",".","_",".",".",".",".",".",".","."],[3,".",".",3,".",".",3,4,"_",3,4,3,4,3,1,"."],[".",".",".",".",".",".",".",".","_",".",".",".",".",".",".",4],[".",".",".",".",".",".",".",".","_",".",".",".",".",".",".","."],[".",".",".",".",".",".",".",".","_",".",".",".",".",".",".","."]],[[".",".",4,6,4,6,4,6,4,6,4,4,".",6,4,6,4,6,"_"],[7,7,".",".",".",".",".",".",".",".",".",".",7,".",".",".",".",".","_"],[".",".",".",".",".",".",".",".",".",".",".",".",".",".",".",".",".",".","_"],[".",".",".",".",".",".",".",".",".",".",".",".",".",".",".",".",".",".","_"],[".",".",".",".",".",".",".",".",".",".",".",".",".",".",".",".",".",".","_"],[".",".",".",".",".",".",".",".",".",".",".",".",".",".",".",".",".",".","_"]],[[6,4,".",7,6,".",".",".",".",".",".",7,6,".",".",".",".",".","."],[".",".",7,".",".",4,7,7,7,4,".",".",".",".",".",".",".",".","."],[".",".",".",".",".",".",".",".",".",".",6,".",".",4,4,4,4,3,3],[".",".",".",".",".",".",".",".",".",".",".",".",".",".",".",".",".",".","."],[".",".",".",".",".",".",".",".",".",".",".",".",".",".",".",".",".",".","."],[".",".",".",".",".",".",".",".",".",".",".",".",".",".",".",".",".",".","."]]],"numberofstrings":6,"notes":["E","B","G","D","A","E","B"],"capo":0,"stringnotes":["E4","B3","G3","D3","A2","E2"],"comments":["Stave 1:","Stave 2:","Stave 3:","Stave 4:","Stave 5:","Stave 6:","Stave 7:"],"timing":[["W","W","W","W","W","W","W","W",null,"W","W","W","W","W","W","W"],["W","W","W","W","W","W","W","W","W","W","W","W","W","W","W","W","W","W","W","W","W","W"],["W","W","W","W","W","W","W","W","W","W","W","W","W","W","W","W","W","W","W"],[],["W","W","W","W","W","W","W","W","W","W","W","W","W","W","W","W","W","W","W","W","W","W","W","W"],["W","W","W","W","W","W","W","W","W","W","W","W","W","W","W","W","W","W","W","W","W","W","W","W"],["W","W","W","W","W","W","W","W","W","W","W"]],"timingvisible":false,"tabcounter":19,"stave":2,"totalstaves":3,"instrument":"6guitar","selectedtuning":"6_standard","version":"13"}

Member for

4 months 3 weeks
Submitted by alecdalelio on Sat, 2021-02-20 07:13