Sound will begin in 5 seconds

Wrong - Depeche Mode

01234567891011121314151617181920212223
E
B
G
D
A
E
B
0 1 2 3 4 5 6 7 8 9 10 11 12 13 14 15 16 17 18 19 20 21 22 23
Song Science #1: How Pros Use 6 Chords to Write Hit Songs
(/) Slide Up  (\) Slide Down  (h) Hammer On  (p) Pull Off  (b) Bend (r) Release (v) Vibrato

Stave 1:

E|--------------------------------------------------------------------------------------------------
B|-----------------------------------------------------0-----0-----0-----0--------------------------
G|--------------------------------------------------------------------------------------------------
D|-----2-----2-----2-----2-----4-----4-----4-----4-----------------------------5-----5-----5-----5--
A|--------------------------------------------------2-----2-----2-----2-----------------------------
E|--0-----0-----0-----0-----2-----2-----2-----2-----------------------------3-----3-----3-----3-----

Stave 2:

E|-----------10-----------9-----------7-----------------------------------------9-------------10---------9--12--
B|--------8------------8-----------8-----------8--10-------------12---------10------------12--------------------
G|-----------------------------------------------------------11-------------------------------------------------
D|-----9------------9-----------9-----------9------------11-------------11------------11-------------11---------
A|--7------------7-----------7-----------7------------9--------------9-------------9--------------9-------------
E|--------------------------------------------------------------------------------------------------------------

Stave 3:

E|--------------18----------18------------------17----------16------------------12--------------14--------------15----------12------
B|----------15------------------15----------15------------------15--------------------------------------------------------------12--
G|--------------------------------------------------------------------------12--------------12--------------12----------------------
D|------16--------------16--------------16--------------16--------------12--------------12--------------12--------------12----------
A|--14--------------14--------------14--------------14--------------10--------------10--------------10--------------10--------------
E|----------------------------------------------------------------------------------------------------------------------------------

http://www.guitartabcreator.com
Guitar Tab Creator is intended to store guitar tab created through the tool. It currently does not support in-line text editing. Any text you place in here will be lost. If you need to comment on your tab, please use the "Tab Notes" section located below.