Sound will begin in 5 seconds

Wtf are u even want?

Chords
01234567891011121314151617181920212223
E
B
G
D
A
E
B
0 1 2 3 4 5 6 7 8 9 10 11 12 13 14 15 16 17 18 19 20 21 22 23
Song Science #1: How Pros Use 6 Chords to Write Hit Songs
(/) Slide Up  (\) Slide Down  (h) Hammer On  (p) Pull Off  (b) Bend (r) Release (v) Vibrato

Stave 1:

E|-------------------
B|-------------------
G|-------------------
D|-------------------
A|-14-12-11-11-11-11-
E|-12-12-12-12-12-12-

Stave 2:

E|-------------------
B|-------------------
G|-------------------
D|-------------------
A|-11-12-14-14-14-14-
E|-12-12-11-11-11-11-

Stave 3:

E|----------------------------------------------------------
B|----------------------------------------------------------
G|----------------------------------------------------------
D|----------------------------------------------------------
A|----12h14-12-11----------12h14-12-11----------12h14-12-11-
E|-12-------------12-12-12-------------12-12-12-------------

Stave 4:

E|-------------------------------------------------
B|-------------------------------------------------
G|-------------------------------------------------
D|-------------------------------------------------
A|----------12h14-12-11----11-12-11----12h14-12-11-
E|-12-12-12-------------12----------12-------------

Stave 5:

E|-------------------------------------------------------
B|-------------------------------------------------------
G|-------------------------------------------------------
D|-------------------------------------------------------
A|----------12h14-12-11----11-14/16-14----12h14-12-11----
E|-12-12-12-------------12-------------12-------------12-

Stave 6:

E|----------------------------------------------------------------------------------------------
B|----------------------------------------------------------------------------------------------
G|----------------------------------------------------------------------------------------------
D|----------------------------------------------------------------------------------------------
A|-14-14-14-14-14-14-12-12-12-12-12-12-11-11-11-11-11-11-12-12-12-12-12-12-14-14-14-14-14-14-14-
E|-12-12-12-12-12-12-12-12-12-12-12-12-12-12-12-12-12-12-12-12-12-12-12-12-11-11-11-11-11-11-11-

Stave 7:

E|----------------------------------------------------------------------------------------------
B|----------------------------------------------------------------------------------------------
G|----------------------------------------------------------------------------------------------
D|----------------------------------7-7-7-7-7-7-6-6-6-6-6-6-7-7-7-7-7-7-9-9-9-9-9-9-9-9-9-9-9-9-
A|-14-14-14-14-14-14-14-14-14-14-14-7-7-7-7-7-7-7-7-7-7-7-7-7-7-7-7-7-7-6-6-6-6-6-6-6-6-6-6-6-6-
E|-11-11-11-11-11-12-12-12-12-12-12-------------------------------------------------------------

Stave 8:

E|-------------------------------------------------------------------------
B|-------------------------------------------------------------------------
G|-------------------------------------------------------------------------
D|-9-9-9-9-9-9-7-7-7-7-7-7-6-6-6-6-6-6-7-7-7-7-7-7-9-9-9-9-9-9-9-9-9-9-9-9-
A|-7-7-7-7-7-7-7-7-7-7-7-7-7-7-7-7-7-7-7-7-7-7-7-7-6-6-6-6-6-6-6-6-6-6-6-6-
E|-------------------------------------------------------------------------

Stave 9:

E|---------------------------------------------------------------------
B|---------------------------------------------------------------------
G|-4---4---4---2---2---2---1---1---1---2---2---2---4---4---4---4---4---
D|---2---2---2---2---2---2---2---2---2---2---2---2---1---1---1---2---2-
A|---------------------------------------------------------------------
E|---------------------------------------------------------------------

http://www.guitartabcreator.com
Guitar Tab Creator is intended to store guitar tab created through the tool. It currently does not support in-line text editing. Any text you place in here will be lost. If you need to comment on your tab, please use the "Tab Notes" section located below.