Sound will begin in 5 seconds

Skum ShurDA

Chords
01234567891011121314151617181920212223
E
B
G
D
A
E
B
0 1 2 3 4 5 6 7 8 9 10 11 12 13 14 15 16 17 18 19 20 21 22 23
Song Science #1: How Pros Use 6 Chords to Write Hit Songs
(/) Slide Up  (\) Slide Down  (h) Hammer On  (p) Pull Off  (b) Bend (r) Release (v) Vibrato

Stave 1:

E|--7-----5--------------5-----5--7--5----------------------------------7--5-----
B|-----------8-----7--------------------8----------------------8-----7--------8--
G|-----7--------7-----5-----7--------------7--5--4--5--4--2/5-----7--------------
D|-------------------------------------------------------------------------------
A|-------------------------------------------------------------------------------
E|-------------------------------------------------------------------------------

Stave 2:

E|--7--7--7--7--7--7--5--5--
B|--8--8--8--8--7--7--5--5--
G|--7--7--7--7--7--7--5--5--
D|--------------------------
A|--------------------------
E|--------------------------

Stave 3:

E|--------------------------
B|--------------------------
G|--------7--7--5--5--4--4--
D|--5--5--7--7--5--5--4--4--
A|--5--5--5--5--3--3--2--2--
E|--3--3--------------------

Stave 4:

E|----------------------------------
B|----------------------------------
G|----------14--14--12--12--11--11--
D|--12--12--14--14--12--12--11--11--
A|--12--12--12--12--10--10--9---9---
E|--10--10--------------------------

Stave 5:

E|----------------------------------------------------------------------------
B|----------------------------------------------------------------------------
G|--------------------------------------------------16--14--12--9--12--9--9---
D|----------10--12--10------12--14--12--10--12----------------------------10--
A|------12--------------12----------------------12----------------------------
E|--10------------------------------------------------------------------------

Stave 6:

E|--3--2--3--3--
B|--3--3--5--5--
G|--4--3--4--5--
D|--4--4--5--5--
A|--5--2--3--3--
E|--3--2--3--3--

http://www.guitartabcreator.com
Guitar Tab Creator is intended to store guitar tab created through the tool. It currently does not support in-line text editing. Any text you place in here will be lost. If you need to comment on your tab, please use the "Tab Notes" section located below.