Sound will begin in 5 seconds

BLues 2

Chords
01234567891011121314151617181920212223
E
B
G
D
A
E
B
0 1 2 3 4 5 6 7 8 9 10 11 12 13 14 15 16 17 18 19 20 21 22 23
Song Science #1: How Pros Use 6 Chords to Write Hit Songs
(/) Slide Up  (\) Slide Down  (h) Hammer On  (p) Pull Off  (b) Bend (r) Release (v) Vibrato

Stave 1:

E|--0------------------0------------------0-------------------------
B|--1------------------1------------------1-------------------------
G|--0--------7h9p7-----2--------5h7/9-----2-------------------------
D|--2--7--9---------9--3--5--7---------7--2--------------10--9------
A|--3------------------3------------------0------10--12---------10--
E|--0------------------0------------------0--12---------------------

Stave 2:

E|--2----------------------1--------------------
B|--2--12--10--12--10------3--10--8--10--8------
G|--0------------------12--2----------------10--
D|--0----------------------0--------------------
A|--2-------------------------------------------
E|--3-------------------------------------------

Stave 3:

E|--
B|--
G|--
D|--
A|--
E|--

Stave 4:

E|--
B|--
G|--
D|--
A|--
E|--

http://www.guitartabcreator.com
Guitar Tab Creator is intended to store guitar tab created through the tool. It currently does not support in-line text editing. Any text you place in here will be lost. If you need to comment on your tab, please use the "Tab Notes" section located below.