em hay ve di bolero intro thai son yt

Chords

01234567891011121314151617181920212223
E
B
G
D
A
E
B
0 1 2 3 4 5 6 7 8 9 10 11 12 13 14 15 16 17 18 19 20 21 22 23
(/) Slide Up  (\) Slide Down  (h) Hammer On  (p) Pull Off  (b) Bend (r) Release (v) Vibrato

Stave 1:

E|-----------------2--2-----------------------2--2-------------------2--2--------------------------2--2--------------------2--2--------
B|-----------------3--3-----3-----------------2--2-------------------2--2--------------------------3--3-----------2-----2--2--2--2--5--
G|--------4--2--4--4--4--4-----2--2--4--2-----2--2-------------------2--2--------------------------4--4--------------4-----2--2--------
D|-----4-----------------------------------4--------------2h4-----2--------2--4-----2--------0-----------2--2--4-----------------------
A|--2-----------------------------------------------2--5-------5-----------------2-----5--4-----2--------------------------------------
E|-------------------------------------------------------------------------------------------------------------------------------------

Stave 2:

E|----------------2--2--------------------2--2-----------------------------2--2-----------------------2--2--
B|----------------2--2-----------2-----2--2--2--2--------------------------3--3-----------------------3--3--
G|--2--2h4--2-----2--2--------------4-----2--2-----4--2--2--4-----------4--4--4-----------------------4--4--
D|-------------4--------2--2--4--------------------------------2--2--4-----------2--2--4--2-----------4--4--
A|-------------------------------------------------------------------------------------------5--4--2--2--2--
E|----------------------------------------------------------------------------------------------------------

							http://www.guitartabcreator.com
Instruments
{"strings":[[[".",".",".",".",".",2,2,".",".",".",".",".",".",".",2,2,".",".",".",".",".",".",".",2,2,".",".",".",".",".",".",".",".",2,2,".",".",".",".",".",".",2,2,".","."],[".",".",".",".",".",3,3,".",3,".",".",".",".",".",2,2,".",".",".",".",".",".",".",2,2,".",".",".",".",".",".",".",".",3,3,".",".",".",2,".",2,2,2,2,5],[".",".",4,2,4,4,4,4,".",2,2,4,2,".",2,2,".",".",".",".",".",".",".",2,2,".",".",".",".",".",".",".",".",4,4,".",".",".",".",4,".",2,2,".","."],[".",4,".",".",".",".",".",".",".",".",".",".",".",4,".",".",".",".",2,"h",4,".",2,".",".",2,4,".",2,".",".",0,".",".",".",2,2,4,".",".",".",".",".",".","."],[2,".",".",".",".",".",".",".",".",".",".",".",".",".",".",".",2,5,".",".",".",5,".",".",".",".",".",2,".",5,4,".",2,".",".",".",".",".",".",".",".",".",".",".","."],[".",".",".",".",".",".",".",".",".",".",".",".",".",".",".",".",".",".",".",".",".",".",".",".",".",".",".",".",".",".",".",".",".",".",".",".",".",".",".",".",".",".",".",".","."]],[[".",".",".",".",".",".",2,2,".",".",".",".",".",".",2,2,".",".",".",".",".",".",".",".",".",2,2,".",".",".",".",".",".",".",2,2],[".",".",".",".",".",".",2,2,".",".",".",2,".",2,2,2,2,".",".",".",".",".",".",".",".",3,3,".",".",".",".",".",".",".",3,3],[2,2,"h",4,2,".",2,2,".",".",".",".",4,".",2,2,".",4,2,2,4,".",".",".",4,4,4,".",".",".",".",".",".",".",4,4],[".",".",".",".",".",4,".",".",2,2,4,".",".",".",".",".",".",".",".",".",".",2,2,4,".",".",".",2,2,4,2,".",".",".",4,4],[".",".",".",".",".",".",".",".",".",".",".",".",".",".",".",".",".",".",".",".",".",".",".",".",".",".",".",".",".",".",".",5,4,2,2,2],[".",".",".",".",".",".",".",".",".",".",".",".",".",".",".",".",".",".",".",".",".",".",".",".",".",".",".",".",".",".",".",".",".",".",".","."]]],"numberofstrings":6,"notes":["E","B","G","D","A","E","B"],"capo":0,"stringnotes":["E4","B3","G3","D3","A2","E2"],"comments":["Stave 1:","Stave 2:"],"timing":[["W","W","W","W","W","W","W","W","W","W","W","W","W","W","W","W","W","W","W",null,"W","W","W","W","W","W","W","W","W","W","W","W","W","W","W","W","W","W","W","W","W","W","W","W","W","W"],["W","W",null,"W","W","W","W","W","W","W","W","W","W","W","W","W","W","W","W","W","W","W","W","W","W","W","W","W","W","W","W","W","W","W","W","W"]],"timingvisible":false,"tabcounter":36,"stave":1,"totalstaves":2,"instrument":"6guitar","selectedtuning":"6_standard","version":"13"}

Member for

1 week 4 days
Submitted by alberthamchoi on Fri, 2020-05-22 19:13