Ready to Go

Chords

01234567891011121314151617181920212223
E
B
G
D
A
E
B
0 1 2 3 4 5 6 7 8 9 10 11 12 13 14 15 16 17 18 19 20 21 22 23
(/) Slide Up  (\) Slide Down  (h) Hammer On  (p) Pull Off  (b) Bend (r) Release (v) Vibrato

Stave 1:

E|--2--3--3--3--
B|--3--3--3--3--
G|--2--0--0--0--
D|--0--2--0--2--
A|-----0--1--3--
D|--------------

Stave 2:

E|--2--------0--
B|--3--------3--
G|--2--3--5--0--
D|--0--3--5--2--
A|-----1--3--0--
D|--------------

Stave 3:

E|--2--0--------
B|--3--3--------
G|--2--0--3--5--
D|--0--2--3--5--
A|-----0--1--3--
D|--------------

							http://www.guitartabcreator.com
Instruments
{"strings":[[[2,3,3,3],[3,3,3,3],[2,0,0,0],[0,2,0,2],[".",0,1,3],[".",".",".","."]],[[2,".",".",0],[3,".",".",3],[2,3,5,0],[0,3,5,2],[".",1,3,0],[".",".",".","."]],[[2,0,".","."],[3,3,".","."],[2,0,3,5],[0,2,3,5],[".",0,1,3],[".",".",".","."]]],"numberofstrings":6,"notes":["E","B","G","D","A","D","B"],"capo":0,"stringnotes":["E4","B3","G3","D3","A2","D3"],"comments":["Stave 1:","Stave 2:","Stave 3:"],"timing":[["W","W","W","W"],["W","W","W","W"],["W","W","W","W"]],"timingvisible":false,"tabcounter":3,"stave":2,"totalstaves":3,"instrument":"6guitar","selectedtuning":"6_standard","version":"13"}

Member for

11 months 1 week
Submitted by alberio on Fri, 2020-10-16 15:16