Sound will begin in 5 seconds

Set a course unknown

01234567891011121314151617181920212223
E
B
G
D
A
E
B
0 1 2 3 4 5 6 7 8 9 10 11 12 13 14 15 16 17 18 19 20 21 22 23
Song Science #1: How Pros Use 6 Chords to Write Hit Songs
(/) Slide Up  (\) Slide Down  (h) Hammer On  (p) Pull Off  (b) Bend (r) Release (v) Vibrato

Stave 1:

G|--------------------------5-----------------------------
D|-----3-----------3--5--7-----7--7--5--------------------
A|--5-----5--3--5-----------------------7--7--7--5--------
E|--------------------------------------------------7--7--

Stave 2:

G|--
D|--
A|--
E|--

Stave 3:

G|--------------------------------------15--17--17--15------------------------------
D|----------------------------------17------------------17------15--17--17--15------
A|--13--15--13--15--15--17--15--17--------------------------17------------------17--
E|----------------------------------------------------------------------------------

Stave 4:

G|------------------------------------------------------------------------------
D|-----7--9--9--10--9--7--------7--9--9--10--9--7------------------10--9--7--9--
A|--9---------------------9--9---------------------9--9--7--9--10---------------
E|------------------------------------------------------------------------------

Stave 5:

G|--------------------------------------15--17--17--15------------------------------
D|----------------------------------17------------------17------15--17--17--15------
A|--13--15--13--15--15--17--15--17--------------------------17------------------17--
E|----------------------------------------------------------------------------------

Stave 6:

G|-----11--9----------------11--9-------------12--11--9-------------|-----11--9----------------11--9-------------12--11--9--7-----------
D|----------------9--11----------------9--11-------------11--9--11--|----------------9--11----------------9--11----------------9--7--9--
A|--9---------11---------9---------11-------------------------------|--9---------11---------9---------11--------------------------------
E|------------------------------------------------------------------|-------------------------------------------------------------------

Stave 7:

G|-----------------------------------------------|------15--17--17--15----------------------
D|-----------------------------------------------|--17------------------17------15--17--17--
A|--7--7--7--9--9--9--9--5--5--5--5--7--7--7--7--|--------------------------17--------------
E|-----------------------------------------------|------------------------------------------

http://www.guitartabcreator.com
Guitar Tab Creator is intended to store guitar tab created through the tool. It currently does not support in-line text editing. Any text you place in here will be lost. If you need to comment on your tab, please use the "Tab Notes" section located below.