Sound will begin in 5 seconds

Set me free

Chords
01234567891011121314151617181920212223
E
B
G
D
A
E
B
0 1 2 3 4 5 6 7 8 9 10 11 12 13 14 15 16 17 18 19 20 21 22 23
Song Science #1: How Pros Use 6 Chords to Write Hit Songs
(/) Slide Up  (\) Slide Down  (h) Hammer On  (p) Pull Off  (b) Bend (r) Release (v) Vibrato

Stave 1:

Eb|--------------------------------
Bb|--------------------------------
Gb|--------------------------------
Db|-----5-----7--7-----------5-----
Ab|-----5-----7--7-----------5-----
Eb|--0--3--0--5--5--0--0--0--3--0--

Stave 2:

Eb|-------------------------------
Bb|-------------------------------
Gb|-------------------------------
Db|-----5-----7-----10--10--9--9--
Ab|-----5-----7-----10--10--9--9--
Eb|--0--3--0--5--0--8---8---7--7--

Stave 3:

Eb|-----------------
Bb|-----------------
Gb|-----------------
Db|-----------5-----
Ab|-----------5-----
Eb|--0--0--0--3--0--

Stave 4:

Eb|----------------------------------------
Bb|----------------------------------------
Gb|----------------------------------------
Db|--10--10--10--10--10--9--9--9--9--9--9--
Ab|--10--10--10--10--10--9--9--9--9--9--9--
Eb|--8---8---8---8---8---7--7--7--7--7--7--

Stave 5:

Eb|---------------------
Bb|---------------------
Gb|---------------------
Db|---------------------
Ab|--5--7--7--5--7b8r7--
Eb|--0--0--0--0--0------

Stave 6:

Eb|------------------------------------------
Bb|------------------------------------------
Gb|------------------------------------------
Db|------------------------5--------7--------
Ab|--5h7-----5h7--7-----7--------7--------7--
Eb|--0----0----------0--------0--------0-----

Stave 7:

Eb|------------------------
Bb|------------------------
Gb|------------------------
Db|------------------------
Ab|--5h7-----5h7--7--5/12--
Eb|--0----0----------------

Stave 8:

Eb|-----------------------------
Bb|-----------------------------
Gb|-----------------------------
Db|--------------------5-----7--
Ab|--7--7--7--5--7-----5-----7--
Eb|--0--0--0--0--0--0--3--0--5--

Stave 9:

Eb|------------------------------
Bb|------------------------------
Gb|------------------------------
Db|---------------------5-----7--
Ab|--7--7--7--10--7-----5-----7--
Eb|--0--0--0--0---0--0--3--0--5--

Stave 10:

Eb|--
Bb|--
Gb|--
Db|--
Ab|--
Eb|--

Stave 11:

Eb|-------------------------
Bb|-------------------------
Gb|-------------------------
Db|-------------------------
Ab|--5--7--7--5--7--5--7b8--
Eb|--0--0--0--0--0--0--0----

Stave 12:

Eb|--
Bb|--
Gb|--
Db|--
Ab|--
Eb|--

Stave 13:

Eb|--------------------------
Bb|--------------------------
Gb|--------------------------
Db|-----5-----7--7--7--2-----
Ab|-----5-----7--7--7--2\12--
Eb|--0--3--0--5--5--5--0-----

Stave 14:

Eb|--
Bb|--
Gb|--
Db|--
Ab|--
Eb|--

Stave 15:

Eb|----------------------------
Bb|----------------------------
Gb|----------------------------
Db|-----5-----7--7--7--2-------
Ab|-----5-----7--7--7--2-------
Eb|--0--3--0--5--5--5--0--3b4--

Stave 16:

Eb|----------------------------------------------------------------
Bb|------------------------15--------------------------------------
Gb|---------12--14--14b15------------------------------------------
Db|--12\14---------------------------------------------------------
Ab|-----------------------------------------12--10--10h12--10------
Eb|----------------------------------10/12---------------------12--

Stave 17:

Eb|------------------------------12p10--12p10--12p10---------
Bb|----------------------------------------------------------
Gb|---------------------------------------------------12--9--
Db|---------12-----------------------------------------------
Ab|--12/14------14--12b14r12---------------------------------
Eb|----------------------------------------------------------

Stave 18:

Eb|---------------------------------------------------------------
Bb|--13p12\10-----------------------------------------------------
Gb|------------12/14--12\11--12p11--9\7--7h9--9p7--9/11--9--11b12\
Db|---------------------------------------------------------------
Ab|---------------------------------------------------------------
Eb|---------------------------------------------------------------

Stave 19:

Eb|-------------------------------------------------------------------
Bb|---------12h13p12\10h12p10-----------------------------------------
Gb|--12h14---------------------12p11h12p11--11p9h11p9--9\7h9p7--7--7--
Db|-------------------------------------------------------------------
Ab|-------------------------------------------------------------------
Eb|-------------------------------------------------------------------

Stave 20:

Eb|---------------------------------------
Bb|--------12--------------12------12b13--
Gb|--9/14------14--12--14------14---------
Db|---------------------------------------
Ab|---------------------------------------
Eb|---------------------------------------

Stave 21:

Eb|----------------------------------------------------------------------15--------------
Bb|--13p12h13/15--12--15p13p12--15p13p12--15p13p12--15p13p12--15/17--17------17--17--17--
Gb|--------------------------------------------------------------------------------------
Db|--------------------------------------------------------------------------------------
Ab|--------------------------------------------------------------------------------------
Eb|--------------------------------------------------------------------------------------

Stave 22:

Eb|---------------------------------------------------------------------------
Bb|---------------------------------------------------------------------------
Gb|---------12--14--14b15r14p12\11--12p11\9--11b12r11p9--11p9\7--9p7-----7h9--
Db|--12/14------------------------------------------------------------9-------
Ab|---------------------------------------------------------------------------
Eb|---------------------------------------------------------------------------

Stave 23:

Eb|-----------------------------------------------
Bb|-----------------------------------------------
Gb|-----------------------------------------------
Db|---------------5-------------------------------
Ab|--5h7-----5h7-----7--5h7--5h7-----5h7-----/12--
Eb|--0-------0----------0----0-------0------------

Stave 24:

Eb|------------------------------------------
Bb|------------------------------------------
Gb|------------------------------------------
Db|---------------------7--------5-----------
Ab|--5h7-----5h7--7--------7--------7-----7--
Eb|--0----0----------0--------0--------7-----

Stave 25:

Eb|----------------------------------------------------
Bb|----------------------------------------------------
Gb|--14b15r14--14b15r14--14b15r14--14b15r14--14b15r14--
Db|----------------------------------------------------
Ab|----------------------------------------------------
Eb|----------------------------------------------------

Stave 26:

Eb|-------------------------------------------
Bb|-------------------------------------------
Gb|--12h14p12--------------12--14--12--14b15--
Db|------------14--12--14---------------------
Ab|-------------------------------------------
Eb|-------------------------------------------

Stave 27:

Eb|----------------------------------------------------
Bb|--15b16r15--15b16r15--15b16r15--15b16r15--15b16r15--
Gb|----------------------------------------------------
Db|----------------------------------------------------
Ab|----------------------------------------------------
Eb|----------------------------------------------------

Stave 28:

Eb|----------------------------------------------
Bb|--13h15p13--------------13--15--13--15b16r15--
Gb|------------15--13--15------------------------
Db|----------------------------------------------
Ab|----------------------------------------------
Eb|----------------------------------------------

http://www.guitartabcreator.com
Guitar Tab Creator is intended to store guitar tab created through the tool. It currently does not support in-line text editing. Any text you place in here will be lost. If you need to comment on your tab, please use the "Tab Notes" section located below.