Sound will begin in 5 seconds

GIVE IT UP

Chords
01234567891011121314151617181920212223
E
B
G
D
A
E
B
0 1 2 3 4 5 6 7 8 9 10 11 12 13 14 15 16 17 18 19 20 21 22 23
Song Science #1: How Pros Use 6 Chords to Write Hit Songs
(/) Slide Up  (\) Slide Down  (h) Hammer On  (p) Pull Off  (b) Bend (r) Release (v) Vibrato

Stave 1:

Eb|--------------------------------------
Bb|--------------------------------------
Gb|-----------0-----------0--2--2--2--0--
Db|--2--2-----0--2--2--2--0--2--2--2--0--
Ab|--2--2--------2--2--2-----0--0--0-----
Eb|--0--0-----3--0--0--0--3-----------3--

Stave 2:

Eb|-----------------------
Bb|-----------------------
Gb|-----------------------
Db|--2--2-----2--2--2--2--
Ab|--2--2-----2--2--2--2--
Eb|--0--0-----0--0--0--0--

Stave 3:

Eb|--------------------------------
Bb|--------------------------------
Gb|--------0--2--2-----2--2--2--2--
Db|--2--2--0--2--2-----2--2--2--2--
Ab|--2--2-----0--0-----0--0--0--0--
Eb|--0--0--3-----------------------

Stave 4:

Eb|---------------------------------
Bb|---------------------------------
Gb|---------------------------------
Db|------------2--2-----2--2--2--2--
Ab|--0h1p0-----2--2-----2--2--2--2--
Eb|---------3--0--0-----0--0--0--0--

Stave 5:

Eb|--------------------------------
Bb|--------------------------------
Gb|--2-----------------------------
Db|--2--------2--2-----2--2--2--2--
Ab|--0--------2--2-----2--2--2--2--
Eb|-----3-----0--0-----0--0--0--0--

Stave 6:

Eb|--------------------------
Bb|--3--3--3--3--3-----------
Gb|--2--2--2--2--2--2--2--2--
Db|--0--0--0--0--0--2--2--2--
Ab|-----------------0--0--0--
Eb|--------------------------

Stave 7:

Eb|--------------------------------------------
Bb|--------------------------------------------
Gb|--7--7--7--7--7--9--9--9--10--10--10--9-----
Db|--------------------------------------------
Ab|--5--5--5--5--5--7--7--7--8---8---8---7-----
Eb|--------------------------------------------

Stave 8:

Eb|-----------------------------
Bb|-----------------------------
Gb|--7--7--7--7-----0--2--2--2--
Db|--7--7--7--7-----0--2--2--2--
Ab|--5--5--5--5--------0--0--0--
Eb|-----------------3-----------

Stave 9:

Eb|--------------------------------
Bb|--------------------------------
Gb|--7--7--7--7--0--0--0--2--2--2--
Db|--7--7--7--7--0--0--0--2--2--2--
Ab|--5--5--5--5-----------0--0--0--
Eb|--------------3--3--3-----------

Stave 10:

Eb|-----------------------
Bb|-----------5--5--5--5--
Gb|-----------7--7--7--7--
Db|--2--2-----6--6--6--6--
Ab|--2--2-----7--7--7--7--
Eb|--0--0-----------------

Stave 11:

Eb|--------------------------------
Bb|--5--5--3--5--5-----5--5--5--5--
Gb|--7--7--4--6--6-----6--6--6--6--
Db|--6--6--5--7--7-----7--7--7--7--
Ab|--7--7--5--7--7-----7--7--7--7--
Eb|--------------------------------

Stave 12:

Eb|---------------------------------
Bb|---------------------5--5--5--5--
Gb|---------------------7--7--7--7--
Db|------------2--2-----6--6--6--6--
Ab|--0h1p0-----2--2-----7--7--7--7--
Eb|---------3--0--0-----------------

Stave 13:

Eb|--12-----12--------
Bb|--15b16--15b16r15--
Gb|-------------------
Db|-------------------
Ab|-------------------
Eb|-------------------

Stave 14:

Eb|--------------------
Bb|--------------------
Gb|--7--7--------------
Db|--7--7-----7--7--7--
Ab|--5--5-----7--7--7--
Eb|-----------5--5--5--

Stave 15:

Eb|--------------------
Bb|--------------------
Gb|--5--5--------------
Db|--5--5-----5--5--5--
Ab|--3--3-----5--5--5--
Eb|-----------3--3--3--

Stave 16:

Eb|------------
Bb|------------
Gb|------------
Db|------------
Ab|-------3/5--
Eb|--3h5-------

Stave 17:

Eb|--------------------------------------
Bb|--7--8--8--7-----5--7--7--5--7--7--5--
Gb|--7--7--7--7-----6--6--6--6--6--6--6--
Db|-----------------7--7--7--7--7--7--7--
Ab|--------------------------------------
Eb|--------------------------------------

Stave 18:

Eb|------------------------------------------
Bb|--5--7--7--5-----3------------------------
Gb|--5--5--5--5-----4-------5----------5-----
Db|-----------------5--5h7-----7--5h7-----7--
Ab|------------------------------------------
Eb|------------------------------------------

http://www.guitartabcreator.com
Guitar Tab Creator is intended to store guitar tab created through the tool. It currently does not support in-line text editing. Any text you place in here will be lost. If you need to comment on your tab, please use the "Tab Notes" section located below.