dingin subuh

Chords
01234567891011121314151617181920212223
E
B
G
D
A
E
B
0 1 2 3 4 5 6 7 8 9 10 11 12 13 14 15 16 17 18 19 20 21 22 23
(/) Slide Up  (\) Slide Down  (h) Hammer On  (p) Pull Off  (b) Bend (r) Release (v) Vibrato

Stave 1:

E|--------------------------------------------------------------------------------------------------------------------------------------------------------------------------------------
B|--------------------------------------------------------------------------------------------------------------------------------------------------------------------------------------
G|-----7--9--7--9--10--9--7--9--7--9--6----------------------------7-------------------------10--9--7--10--9--10--7--7------------------------------------------------------------------
D|--7---------------------------------------------7--8--10--8--10-----10--8--10--7--------------------------------------10--8--10--8--10--8--8--7----------7--8--10--8--10--------------
A|-------------------------------------------------------------------------------------------------------------------------------------------------10--10-------------------------------
E|--------------------------------------------------------------------------------------------------------------------------------------------------------------------------------------

Stave 2:

E|--------------15--------------------------15------15------13---------------------------------------------------------------------------------15--------------------------15--13--15------13--
B|--15--17--18------18--17--15------15--17------18------17------15--------15--17--15--17--15--18--15--14--12------12--14-----------15--17--18------18--17--15------15--17--------------17------
G|------------------------------15----------------------------------------------------------------------------15-----------------------------------------------15------------------------------
D|---------------------------------------------------------------------------------------------------------------------------------------------------------------------------------------------
A|---------------------------------------------------------------------------------------------------------------------------------------------------------------------------------------------
E|---------------------------------------------------------------------------------------------------------------------------------------------------------------------------------------------

Stave 3:

E|---------------------------------------------------------------------
B|---------------------------------------------------------------------
G|--15-----------------15--17--15--17--15--14----------12------12--14--
D|---------------------------------------------15--14------14----------
A|---------------------------------------------------------------------
E|---------------------------------------------------------------------

							http://www.guitartabcreator.com
Instruments
{"strings":[[[".",".",".",".",".",".",".",".",".",".",".",".","_","_","_",".",".",".",".",".",".",".",".",".",".","_","_","_",".",".",".",".",".",".",".",".",".",".",".",".",".",".",".",".",".",".",".",".",".",".",".","_","_","_","_"],[".",".",".",".",".",".",".",".",".",".",".",".","_","_","_",".",".",".",".",".",".",".",".",".",".","_","_","_",".",".",".",".",".",".",".",".",".",".",".",".",".",".",".",".",".",".",".",".",".",".",".","_","_","_","_"],[".",7,9,7,9,10,9,7,9,7,9,6,"_","_","_",".",".",".",".",".",7,".",".",".",".","_","_","_",10,9,7,10,9,10,7,7,".",".",".",".",".",".",".",".",".",".",".",".",".",".",".","_","_","_","_"],[7,".",".",".",".",".",".",".",".",".",".",".","_","_","_",7,8,10,8,10,".",10,8,10,7,"_","_","_",".",".",".",".",".",".",".",".",10,8,10,8,10,8,8,7,".",".",7,8,10,8,10,"_","_","_","_"],[".",".",".",".",".",".",".",".",".",".",".",".","_","_","_",".",".",".",".",".",".",".",".",".",".","_","_","_",".",".",".",".",".",".",".",".",".",".",".",".",".",".",".",".",10,10,".",".",".",".",".","_","_","_","_"],[".",".",".",".",".",".",".",".",".",".",".",".","_","_","_",".",".",".",".",".",".",".",".",".",".","_","_","_",".",".",".",".",".",".",".",".",".",".",".",".",".",".",".",".",".",".",".",".",".",".",".","_","_","_","_"]],[[".",".",".",15,".",".",".",".",".",".",15,".",15,".",13,".","_","_",".",".",".",".",".",".",".",".",".",".",".",".","_","_","_",".",".",".",15,".",".",".",".",".",".",15,13,15,".",13],[15,17,18,".",18,17,15,".",15,17,".",18,".",17,".",15,"_","_",15,17,15,17,15,18,15,14,12,".",12,14,"_","_","_",15,17,18,".",18,17,15,".",15,17,".",".",".",17,"."],[".",".",".",".",".",".",".",15,".",".",".",".",".",".",".",".","_","_",".",".",".",".",".",".",".",".",".",15,".",".","_","_","_",".",".",".",".",".",".",".",15,".",".",".",".",".",".","."],[".",".",".",".",".",".",".",".",".",".",".",".",".",".",".",".","_","_",".",".",".",".",".",".",".",".",".",".",".",".","_","_","_",".",".",".",".",".",".",".",".",".",".",".",".",".",".","."],[".",".",".",".",".",".",".",".",".",".",".",".",".",".",".",".","_","_",".",".",".",".",".",".",".",".",".",".",".",".","_","_","_",".",".",".",".",".",".",".",".",".",".",".",".",".",".","."],[".",".",".",".",".",".",".",".",".",".",".",".",".",".",".",".","_","_",".",".",".",".",".",".",".",".",".",".",".",".","_","_","_",".",".",".",".",".",".",".",".",".",".",".",".",".",".","."]],[[".","_","_","_","_","_",".",".",".",".",".",".",".",".",".",".",".","."],[".","_","_","_","_","_",".",".",".",".",".",".",".",".",".",".",".","."],[15,"_","_","_","_","_",15,17,15,17,15,14,".",".",12,".",12,14],[".","_","_","_","_","_",".",".",".",".",".",".",15,14,".",14,".","."],[".","_","_","_","_","_",".",".",".",".",".",".",".",".",".",".",".","."],[".","_","_","_","_","_",".",".",".",".",".",".",".",".",".",".",".","."]]],"numberofstrings":6,"notes":["E","B","G","D","A","E","B"],"capo":0,"stringnotes":["E4","B3","G3","D3","A2","E2"],"comments":["Stave 1:","Stave 2:","Stave 3:"],"timing":[["W","W","W","W","W","W","W","W","W","W","W","W",null,null,null,"W","W","W","W","W","W","W","W","W","W",null,null,null,"W","W","W","W","W","W","W","W","W","W","W","W","W","W","W","W","W","W","W","W","W","W","W"],["W","W","W","W","W","W","W","W","W","W","W","W","W","W","W","W",null,null,"W","W","W","W","W","W","W","W","W","W","W","W",null,null,null,"W","W","W","W","W","W","W","W","W","W","W","W","W","W","W","W"],["W",null,null,null,null,null,"W","W","W","W","W","W","W","W","W","W","W","W"]],"timingvisible":false,"tabcounter":18,"stave":2,"totalstaves":3,"instrument":"6guitar","selectedtuning":"6_standard","version":"13"}

Member for

1 week 4 days
Submitted by AkRam Shah on Sat, 2020-05-23 07:39