idk something i made

Chords
01234567891011121314151617181920212223
E
B
G
D
A
E
B
0 1 2 3 4 5 6 7 8 9 10 11 12 13 14 15 16 17 18 19 20 21 22 23
(/) Slide Up  (\) Slide Down  (h) Hammer On  (p) Pull Off  (b) Bend (r) Release (v) Vibrato

Stave 1:

E|-------------------------------------------------|-------------------------------------------------|--
B|-------------------------------------------------|-------------------------------------------------|--
G|-------------------------------------------------|-------------------------------------------------|--
D|--------4--------4--------4--------4--------4/5--|--------4--------4--------4--------4--------4/5--|--
A|-----2--------2--------2--------2--------2-------|-----2--------2--------2--------2--------2-------|--
E|--0--------0--------0--------0--------0----------|--3--------3--------3--------3--------3----------|--

Stave 2:

E|-------------------------------------------------|-------------------------------------------------|--
B|-------------------------------------------------|-------------------------------------------------|--
G|-------------------------------------------------|-------------------------------------------------|--
D|--------2--------2--------2--------2--------2/3--|--------2--------2--------2--------2--------2/3--|--
A|-----1--------1--------1--------1--------1-------|-----0--------0--------0--------0--------0-------|--
E|--2--------2--------2--------2--------2----------|--1--------1--------1--------1--------1----------|--

							http://www.guitartabcreator.com
Instruments
{"strings":[[[".",".",".",".",".",".",".",".",".",".",".",".",".",".",".",".",".","|",".",".",".",".",".",".",".",".",".",".",".",".",".",".",".",".",".","|"],[".",".",".",".",".",".",".",".",".",".",".",".",".",".",".",".",".","|",".",".",".",".",".",".",".",".",".",".",".",".",".",".",".",".",".","|"],[".",".",".",".",".",".",".",".",".",".",".",".",".",".",".",".",".","|",".",".",".",".",".",".",".",".",".",".",".",".",".",".",".",".",".","|"],[".",".",4,".",".",4,".",".",4,".",".",4,".",".",4,"/",5,"|",".",".",4,".",".",4,".",".",4,".",".",4,".",".",4,"/",5,"|"],[".",2,".",".",2,".",".",2,".",".",2,".",".",2,".",".",".","|",".",2,".",".",2,".",".",2,".",".",2,".",".",2,".",".",".","|"],[0,".",".",0,".",".",0,".",".",0,".",".",0,".",".",".",".","|",3,".",".",3,".",".",3,".",".",3,".",".",3,".",".",".",".","|"]],[[".",".",".",".",".",".",".",".",".",".",".",".",".",".",".",".",".","|",".",".",".",".",".",".",".",".",".",".",".",".",".",".",".",".",".","|"],[".",".",".",".",".",".",".",".",".",".",".",".",".",".",".",".",".","|",".",".",".",".",".",".",".",".",".",".",".",".",".",".",".",".",".","|"],[".",".",".",".",".",".",".",".",".",".",".",".",".",".",".",".",".","|",".",".",".",".",".",".",".",".",".",".",".",".",".",".",".",".",".","|"],[".",".",2,".",".",2,".",".",2,".",".",2,".",".",2,"/",3,"|",".",".",2,".",".",2,".",".",2,".",".",2,".",".",2,"/",3,"|"],[".",1,".",".",1,".",".",1,".",".",1,".",".",1,".",".",".","|",".",0,".",".",0,".",".",0,".",".",0,".",".",0,".",".",".","|"],[2,".",".",2,".",".",2,".",".",2,".",".",2,".",".",".",".","|",1,".",".",1,".",".",1,".",".",1,".",".",1,".",".",".",".","|"]]],"numberofstrings":6,"notes":["E","B","G","D","A","E","B"],"capo":0,"stringnotes":["E4","B3","G3","D3","A2","E2"],"comments":["Stave 1:","Stave 2:"],"timing":[["W","W","W","W","W","W","W","W","W","W","W","W","W","W","W",null,"W",null,"W","W","W","W","W","W","W","W","W","W","W","W","W","W","W",null,"W"],["W","W","W","W","W","W","W","W","W","W","W","W","W","W","W",null,"W",null,"W","W","W","W","W","W","W","W","W","W","W","W","W","W","W",null,"W"]],"timingvisible":false,"tabcounter":36,"stave":1,"totalstaves":2,"instrument":"6guitar","selectedtuning":"6_standard","version":"13"}

Member for

6 days 19 hours
Submitted by Aki-chan on Thu, 2020-05-21 20:32