a fistful of dollars

01234567891011121314151617181920212223
E
B
G
D
A
E
B
0 1 2 3 4 5 6 7 8 9 10 11 12 13 14 15 16 17 18 19 20 21 22 23
(/) Slide Up  (\) Slide Down  (h) Hammer On  (p) Pull Off  (b) Bend (r) Release (v) Vibrato

Stave 1:

E|--------------|---------------|---------------|----------------|--------------|--------------|---------------|---------------|----------------|--------------|--
B|--------------|---------------|--8------------|----------------|--------------|--------------|---------------|--8------------|----------------|--------------|--
G|--------------|--7-----9--10--|-----10--9--7--|----------------|--7-----------|--------------|--7-----9--10--|-----10--9--7--|----------------|--------------|--
D|-----------7--|---------------|---------------|--10-----7--10--|--------------|-----------7--|---------------|---------------|--10-----7--10--|--7-----------|--
A|--------------|---------------|---------------|----------------|--------------|--------------|---------------|---------------|----------------|--------------|--
E|--------------|---------------|---------------|----------------|--------------|--------------|---------------|---------------|----------------|--------------|--

Stave 2:

E|--------------|---------------|---------------|---------------|---------------|--8--5--5-----|--------10------|----------------|--------------|--------------|---------------|--
B|--------------|---------------|--8------------|------------8--|--10-----------|-----------6--|------------10--|--10------------|--8-----------|--------------|---------------|--
G|--------------|--7-----9--10--|-----10--9--7--|--9-----10-----|---------------|--------------|----------------|------10-----7--|--------------|--------7--9--|--10-----------|--
D|-----------7--|---------------|---------------|---------------|---------------|--------------|----------------|----------------|--------------|--------------|---------------|--
A|--------------|---------------|---------------|---------------|---------------|--------------|----------------|----------------|--------------|--------------|---------------|--
E|--------------|---------------|---------------|---------------|---------------|--------------|----------------|----------------|--------------|--------------|---------------|--

Stave 3:

E|--------------|--------------|--------------|--------------|--------------|---------------|---------------|----------------|--------------|--------------|--
B|--------------|--------------|--------------|--------------|--------------|---------------|--8------------|----------------|--------------|--------------|--
G|--------7--5--|--7-----------|--------------|--------------|--------------|--7-----9--10--|-----10--9--7--|----------------|--7-----------|--------------|--
D|--------------|--------------|--------------|--------------|-----------7--|---------------|---------------|--10-----7--10--|--------------|-----------7--|--
A|--------------|--------------|--------------|--------------|--------------|---------------|---------------|----------------|--------------|--------------|--
E|--------------|--------------|--------------|--------------|--------------|---------------|---------------|----------------|--------------|--------------|--

Stave 4:

E|---------------|---------------|----------------|--------------|--------------|--------------|--5-----------|--5-----------|--6--5--------|--------------|--------------|--
B|---------------|--8------------|----------------|--------------|--------------|--6-----------|-----8--6--8--|--------------|--------8--6--|--6-----------|--8-----------|--
G|--7-----9--10--|-----10--9--7--|----------------|--------------|--------------|--------------|--------------|--------------|--------------|--------------|--------------|--
D|---------------|---------------|--10-----7--10--|--7-----------|--------7--5--|--------------|--------------|--------------|--------------|--------------|--------------|--
A|---------------|---------------|----------------|--------------|--------------|--------------|--------------|--------------|--------------|--------------|--------------|--
E|---------------|---------------|----------------|--------------|--------------|--------------|--------------|--------------|--------------|--------------|--------------|--

Stave 5:

E|--------------|--------------|--------------|--------------|--------------|--------------|--------------|--------------|---------------|---------------|--
B|--------------|--------------|--------------|--------------|--------------|--------------|--------------|--------------|---------------|---------------|--
G|--7-----------|--------5--7--|--7-----------|--------------|--------------|--------------|--7--5--7-----|--7--5--7-----|--7--9--10--9--|--7---------5--|--
D|--------------|--------------|--------------|--------------|--------------|-----------7--|-----------7--|-----------7--|---------------|-----10--7-----|--
A|--------------|--------------|--------------|--------------|--------------|--------------|--------------|--------------|---------------|---------------|--
E|--------------|--------------|--------------|--------------|--------------|--------------|--------------|--------------|---------------|---------------|--

Stave 6:

E|--------------|--------------|--------------|--------------|--------------|--------------|--------5-----|--------------|--------------|--------------|--
B|--------------|--------------|--------------|--------------|--------------|--------------|--6--8-----8--|--6--5-----5--|--6--5--6--6--|--5-----------|--
G|--7--5--7--5--|--------------|--------------|--------------|--7--5--7-----|--7--5--7--5--|--------------|--------5-----|--------------|-----7--5-----|--
D|--------------|--7-----------|--------------|-----------7--|-----------7--|--------------|--------------|--------------|--------------|--------------|--
A|--------------|--------------|--------------|--------------|--------------|--------------|--------------|--------------|--------------|--------------|--
E|--------------|--------------|--------------|--------------|--------------|--------------|--------------|--------------|--------------|--------------|--

Stave 7:

E|--------------|--------------|--------------|--------------|--------------|--------------|--------------|--------------|---------------|---------------|--
B|--------------|--------------|--8-----------|--6-----------|--------------|--------------|--------------|--------------|---------------|--8------------|--
G|--7-----------|--------------|--------------|--------7--5--|--7-----------|--------------|--------------|--------------|--7-----9--10--|-----10--9--7--|--
D|--------------|--------------|--------------|--------------|--------------|--------------|--------------|-----------7--|---------------|---------------|--
A|--------------|--------------|--------------|--------------|--------------|--------------|--------------|--------------|---------------|---------------|--
E|--------------|--------------|--------------|--------------|--------------|--------------|--------------|--------------|---------------|---------------|--

Stave 8:

E|----------------|--------------|--------------|-----------5--|--6--5--------|-----------0--|--------------|-----------5--|--8-----------|-----------5--|--
B|----------------|--------------|--------------|--6-----8-----|--------8--6--|--8-----6-----|--------------|--------6-----|--------------|--------------|--
G|----------------|--------------|-----------5--|--------------|--------------|--------------|--7-----------|--------------|--------------|--------------|--
D|--10-----7--10--|--7-----------|--------------|--------------|--------------|--------------|--------------|--------------|--------------|--------------|--
A|----------------|--------------|--------------|--------------|--------------|--------------|--------------|--------------|--------------|--------------|--
E|----------------|--------------|--------------|--------------|--------------|--------------|--------------|--------------|--------------|--------------|--

Stave 9:

E|--5-----------|----------------|--10-----------|-----------5--|--5-----------|--------------|--------------|-----------|----------------|--------------|--
B|-----6--------|------------10--|---------------|--------------|-----6--------|--------------|--------------|-----------|----------------|--------------|--
G|--------------|--------10------|---------------|--------------|--------------|--------7--5--|--7-----------|-----------|----------------|--7-----------|--
D|--------------|----------------|---------------|--------------|--------------|--------------|--7-----------|-----------|--10-----7--10--|--------------|--
A|--------------|----------------|---------------|--------------|--------------|--------------|--------------|-----------|----------------|--------------|--
E|--------------|----------------|---------------|--------------|--------------|--------------|--------------|-----------|----------------|--------------|--

Stave 10:

E|----------------|-----------|--------------|-----------|--------------|----------------|-----------|-----------|-----------|--------------|--
B|----------------|-----------|--------------|-----------|--------------|----------------|-----------|-----------|-----------|--------------|--
G|----------------|--7--------|--9--------9--|-----------|--7--------7--|---------7------|-----------|-----------|-----------|--------------|--
D|--10-----7--10--|-----------|--------7-----|-----------|--------7-----|--10--------10--|--7--------|-----------|-----------|-----------7--|--
A|----------------|-----------|--------------|-----------|--------------|----------------|-----------|-----------|-----------|--------------|--
E|----------------|-----------|--------------|-----------|--------------|----------------|-----------|-----------|-----------|--------------|--

Stave 11:

E|---------------|---------------|----------------|-----------|--------------|-----------5--|--6--5--------|--------------|-----------|-----------5--|--8--------|--
B|---------------|--8------------|----------------|-----------|--------------|--6-----8-----|--------8--6--|--8-----6-----|-----------|--------6-----|-----------|--
G|--7-----9--10--|-----10--9--7--|----------------|-----------|-----------5--|--------------|--------------|-----------9--|--7--------|--------------|-----------|--
D|---------------|---------------|--10-----7--10--|--7--------|--------------|--------------|--------------|--------------|-----------|--------------|-----------|--
A|---------------|---------------|----------------|-----------|--------------|--------------|--------------|--------------|-----------|--------------|-----------|--
E|---------------|---------------|----------------|-----------|--------------|--------------|--------------|--------------|-----------|--------------|-----------|--

Stave 12:

E|--------5--|--5-----------|----------------|--10--------|--------5-----|-----------|--------6-----|-----------|--------6-----|-----------|-----------|-----------|--
B|-----------|-----6--------|------------10--|------------|-----------6--|-----------|-----------6--|-----------|-----------6--|-----------|-----------|-----------|--
G|-----------|--------------|--------10------|------------|--------------|--7--------|--------------|--7--------|--------------|--8--------|--------9--|-----------|--
D|-----------|--------------|----------------|------------|--------------|-----------|--------------|-----------|--------------|-----------|-----------|--7--------|--
A|-----------|--------------|----------------|------------|--------------|-----------|--------------|-----------|--------------|-----------|-----------|-----------|--
E|-----------|--------------|----------------|------------|--------------|-----------|--------------|-----------|--------------|-----------|-----------|-----------|--

Stave 13:

E|--------------|-----------|--------------|---------------|---------------|--------------|------------|-----------|-----------|-----------|-----------|-----------|--
B|--------------|-----------|--------------|---------------|---------------|--------------|--10--------|-----------|-----------|-----------|-----------|-----------|--
G|--------------|-----------|--------------|--7-----9--10--|--9--7---------|--7-----------|------------|-----------|-----------|-----------|-----------|-----------|--
D|--------------|-----------|-----------7--|---------------|--------10-----|--------------|------------|-----------|-----------|-----------|-----------|-----------|--
A|--------------|-----------|--------------|---------------|---------------|--------------|------------|-----------|-----------|-----------|-----------|-----------|--
E|--------------|-----------|--------------|---------------|---------------|--------------|------------|-----------|-----------|-----------|-----------|-----------|--

Stave 14:

E|--------------|---------------|---------------|--------------|--------------|--------------|---------------|-----------|-----------|-----------|-----------|-----------|--
B|--------------|---------------|---------------|--------------|--------------|--------------|---------------|-----------|-----------|-----------|-----------|-----------|--
G|--------------|--7-----9--10--|--9--7---------|--7-----------|--------------|--5/7--9--10--|--9--7---------|--7--------|-----------|-----------|-----------|-----------|--
D|-----------7--|---------------|--------10-----|--------------|--7-----------|--------------|-----------10--|-----------|-----------|-----------|-----------|-----------|--
A|--------------|---------------|---------------|--------------|--------------|--------------|---------------|-----------|-----------|-----------|-----------|-----------|--
E|--------------|---------------|---------------|--------------|--------------|--------------|---------------|-----------|-----------|-----------|-----------|-----------|--

Stave 15:

E|-----------|-----------|--------------|---------------|---------------|--------------|--------------|--------------|---------------|--------------|-----------|-----------|--
B|-----------|-----------|--------------|---------------|---------------|--------------|--------------|--------------|---------------|--------------|-----------|-----------|--
G|-----------|-----------|--------------|--7-----9--10--|--9--7---------|--7-----------|--------------|--5/7--9--10--|--9--7-----10--|--7-----------|-----------|-----------|--
D|-----------|-----------|-----------7--|---------------|-----------10--|--------------|--7-----------|--------------|---------------|--------------|-----------|-----------|--
A|-----------|-----------|--------------|---------------|---------------|--------------|--------------|--------------|---------------|--------------|-----------|-----------|--
E|-----------|-----------|--------------|---------------|---------------|--------------|--------------|--------------|---------------|--------------|-----------|-----------|--

Stave 16:

E|-----------|--------------|--
B|-----------|--------------|--
G|-----------|--------------|--
D|-----------|--0-----------|--
A|-----------|--------------|--
E|-----------|--------------|--

							http://www.guitartabcreator.com
Chords

Instruments
{"strings":[[["_","_","_",".","|",".","_",".",".","|",".",".",".",".","|",".","_",".",".","|",".","_","_","_","|","_","_","_",".","|",".","_",".",".","|",".",".",".",".","|",".","_",".",".","|",".","_","_","_","|"],["_","_","_",".","|",".","_",".",".","|",8,".",".",".","|",".","_",".",".","|",".","_","_","_","|","_","_","_",".","|",".","_",".",".","|",8,".",".",".","|",".","_",".",".","|",".","_","_","_","|"],["_","_","_",".","|",7,"_",9,10,"|",".",10,9,7,"|",".","_",".",".","|",7,"_","_","_","|","_","_","_",".","|",7,"_",9,10,"|",".",10,9,7,"|",".","_",".",".","|",".","_","_","_","|"],["_","_","_",7,"|",".","_",".",".","|",".",".",".",".","|",10,"_",7,10,"|",".","_","_","_","|","_","_","_",7,"|",".","_",".",".","|",".",".",".",".","|",10,"_",7,10,"|",7,"_","_","_","|"],["_","_","_",".","|",".","_",".",".","|",".",".",".",".","|",".","_",".",".","|",".","_","_","_","|","_","_","_",".","|",".","_",".",".","|",".",".",".",".","|",".","_",".",".","|",".","_","_","_","|"],["_","_","_",".","|",".","_",".",".","|",".",".",".",".","|",".","_",".",".","|",".","_","_","_","|","_","_","_",".","|",".","_",".",".","|",".",".",".",".","|",".","_",".",".","|",".","_","_","_","|"]],[["_","_","_",".","|",".","_",".",".","|",".",".",".",".","|",".","_",".",".","|",".","_","_","_","|",8,5,5,".","|","_","_",10,".","|",".",".","_",".","|",".","_","_","_","|","_","_",".",".","|",".","_","_","_","|"],["_","_","_",".","|",".","_",".",".","|",8,".",".",".","|",".","_",".",8,"|",10,"_","_","_","|",".",".",".",6,"|","_","_",".",10,"|",10,".","_",".","|",8,"_","_","_","|","_","_",".",".","|",".","_","_","_","|"],["_","_","_",".","|",7,"_",9,10,"|",".",10,9,7,"|",9,"_",10,".","|",".","_","_","_","|",".",".",".",".","|","_","_",".",".","|",".",10,"_",7,"|",".","_","_","_","|","_","_",7,9,"|",10,"_","_","_","|"],["_","_","_",7,"|",".","_",".",".","|",".",".",".",".","|",".","_",".",".","|",".","_","_","_","|",".",".",".",".","|","_","_",".",".","|",".",".","_",".","|",".","_","_","_","|","_","_",".",".","|",".","_","_","_","|"],["_","_","_",".","|",".","_",".",".","|",".",".",".",".","|",".","_",".",".","|",".","_","_","_","|",".",".",".",".","|","_","_",".",".","|",".",".","_",".","|",".","_","_","_","|","_","_",".",".","|",".","_","_","_","|"],["_","_","_",".","|",".","_",".",".","|",".",".",".",".","|",".","_",".",".","|",".","_","_","_","|",".",".",".",".","|","_","_",".",".","|",".",".","_",".","|",".","_","_","_","|","_","_",".",".","|",".","_","_","_","|"]],[["_","_",".",".","|",".","_","_","_","|","_","_","_","_","|","_","_","_","_","|","_","_","_",".","|",".","_",".",".","|",".",".",".",".","|",".","_",".",".","|",".","_","_","_","|","_","_","_",".","|"],["_","_",".",".","|",".","_","_","_","|","_","_","_","_","|","_","_","_","_","|","_","_","_",".","|",".","_",".",".","|",8,".",".",".","|",".","_",".",".","|",".","_","_","_","|","_","_","_",".","|"],["_","_",7,5,"|",7,"_","_","_","|","_","_","_","_","|","_","_","_","_","|","_","_","_",".","|",7,"_",9,10,"|",".",10,9,7,"|",".","_",".",".","|",7,"_","_","_","|","_","_","_",".","|"],["_","_",".",".","|",".","_","_","_","|","_","_","_","_","|","_","_","_","_","|","_","_","_",7,"|",".","_",".",".","|",".",".",".",".","|",10,"_",7,10,"|",".","_","_","_","|","_","_","_",7,"|"],["_","_",".",".","|",".","_","_","_","|","_","_","_","_","|","_","_","_","_","|","_","_","_",".","|",".","_",".",".","|",".",".",".",".","|",".","_",".",".","|",".","_","_","_","|","_","_","_",".","|"],["_","_",".",".","|",".","_","_","_","|","_","_","_","_","|","_","_","_","_","|","_","_","_",".","|",".","_",".",".","|",".",".",".",".","|",".","_",".",".","|",".","_","_","_","|","_","_","_",".","|"]],[[".","_",".",".","|",".",".",".",".","|",".","_",".",".","|",".","_","_","_","|","_","_",".",".","|",".","_","_","_","|",5,".",".",".","|",5,"_","_","_","|",6,5,".",".","|",".","_","_","_","|",".","_","_","_","|"],[".","_",".",".","|",8,".",".",".","|",".","_",".",".","|",".","_","_","_","|","_","_",".",".","|",6,"_","_","_","|",".",8,6,8,"|",".","_","_","_","|",".",".",8,6,"|",6,"_","_","_","|",8,"_","_","_","|"],[7,"_",9,10,"|",".",10,9,7,"|",".","_",".",".","|",".","_","_","_","|","_","_",".",".","|",".","_","_","_","|",".",".",".",".","|",".","_","_","_","|",".",".",".",".","|",".","_","_","_","|",".","_","_","_","|"],[".","_",".",".","|",".",".",".",".","|",10,"_",7,10,"|",7,"_","_","_","|","_","_",7,5,"|",".","_","_","_","|",".",".",".",".","|",".","_","_","_","|",".",".",".",".","|",".","_","_","_","|",".","_","_","_","|"],[".","_",".",".","|",".",".",".",".","|",".","_",".",".","|",".","_","_","_","|","_","_",".",".","|",".","_","_","_","|",".",".",".",".","|",".","_","_","_","|",".",".",".",".","|",".","_","_","_","|",".","_","_","_","|"],[".","_",".",".","|",".",".",".",".","|",".","_",".",".","|",".","_","_","_","|","_","_",".",".","|",".","_","_","_","|",".",".",".",".","|",".","_","_","_","|",".",".",".",".","|",".","_","_","_","|",".","_","_","_","|"]],[[".","_","_","_","|","_","_",".",".","|",".","_","_","_","|","_","_","_","_","|","_","_","_","_","|","_","_","_",".","|",".",".",".",".","|",".",".",".",".","|",".",".",".",".","|",".",".",".",".","|"],[".","_","_","_","|","_","_",".",".","|",".","_","_","_","|","_","_","_","_","|","_","_","_","_","|","_","_","_",".","|",".",".",".",".","|",".",".",".",".","|",".",".",".",".","|",".",".",".",".","|"],[7,"_","_","_","|","_","_",5,7,"|",7,"_","_","_","|","_","_","_","_","|","_","_","_","_","|","_","_","_",".","|",7,5,7,".","|",7,5,7,".","|",7,9,10,9,"|",7,".",".",5,"|"],[".","_","_","_","|","_","_",".",".","|",".","_","_","_","|","_","_","_","_","|","_","_","_","_","|","_","_","_",7,"|",".",".",".",7,"|",".",".",".",7,"|",".",".",".",".","|",".",10,7,".","|"],[".","_","_","_","|","_","_",".",".","|",".","_","_","_","|","_","_","_","_","|","_","_","_","_","|","_","_","_",".","|",".",".",".",".","|",".",".",".",".","|",".",".",".",".","|",".",".",".",".","|"],[".","_","_","_","|","_","_",".",".","|",".","_","_","_","|","_","_","_","_","|","_","_","_","_","|","_","_","_",".","|",".",".",".",".","|",".",".",".",".","|",".",".",".",".","|",".",".",".",".","|"]],[[".",".",".",".","|",".","_","_","_","|","_","_","_","_","|","_","_","_",".","|",".",".",".",".","|",".",".",".",".","|",".",".",5,".","|",".",".",".",".","|",".",".",".",".","|",".",".",".","_","|"],[".",".",".",".","|",".","_","_","_","|","_","_","_","_","|","_","_","_",".","|",".",".",".",".","|",".",".",".",".","|",6,8,".",8,"|",6,5,".",5,"|",6,5,6,6,"|",5,".",".","_","|"],[7,5,7,5,"|",".","_","_","_","|","_","_","_","_","|","_","_","_",".","|",7,5,7,".","|",7,5,7,5,"|",".",".",".",".","|",".",".",5,".","|",".",".",".",".","|",".",7,5,"_","|"],[".",".",".",".","|",7,"_","_","_","|","_","_","_","_","|","_","_","_",7,"|",".",".",".",7,"|",".",".",".",".","|",".",".",".",".","|",".",".",".",".","|",".",".",".",".","|",".",".",".","_","|"],[".",".",".",".","|",".","_","_","_","|","_","_","_","_","|","_","_","_",".","|",".",".",".",".","|",".",".",".",".","|",".",".",".",".","|",".",".",".",".","|",".",".",".",".","|",".",".",".","_","|"],[".",".",".",".","|",".","_","_","_","|","_","_","_","_","|","_","_","_",".","|",".",".",".",".","|",".",".",".",".","|",".",".",".",".","|",".",".",".",".","|",".",".",".",".","|",".",".",".","_","|"]],[[".","_","_","_","|","_","_","_","_","|",".","_","_","_","|",".","_",".",".","|",".","_","_","_","|","_","_","_","_","|","_","_","_","_","|","_","_","_",".","|",".","_",".",".","|",".",".",".",".","|"],[".","_","_","_","|","_","_","_","_","|",8,"_","_","_","|",6,"_",".",".","|",".","_","_","_","|","_","_","_","_","|","_","_","_","_","|","_","_","_",".","|",".","_",".",".","|",8,".",".",".","|"],[7,"_","_","_","|","_","_","_","_","|",".","_","_","_","|",".","_",7,5,"|",7,"_","_","_","|","_","_","_","_","|","_","_","_","_","|","_","_","_",".","|",7,"_",9,10,"|",".",10,9,7,"|"],[".","_","_","_","|","_","_","_","_","|",".","_","_","_","|",".","_",".",".","|",".","_","_","_","|","_","_","_","_","|","_","_","_","_","|","_","_","_",7,"|",".","_",".",".","|",".",".",".",".","|"],[".","_","_","_","|","_","_","_","_","|",".","_","_","_","|",".","_",".",".","|",".","_","_","_","|","_","_","_","_","|","_","_","_","_","|","_","_","_",".","|",".","_",".",".","|",".",".",".",".","|"],[".","_","_","_","|","_","_","_","_","|",".","_","_","_","|",".","_",".",".","|",".","_","_","_","|","_","_","_","_","|","_","_","_","_","|","_","_","_",".","|",".","_",".",".","|",".",".",".",".","|"]],[[".","_",".",".","|",".","_","_","_","|","_","_","_",".","|",".","_",".",5,"|",6,5,".",".","|",".","_",".",0,"|",".","_","_","_","|","_","_",".",5,"|",8,"_","_","_","|","_","_","_",5,"|"],[".","_",".",".","|",".","_","_","_","|","_","_","_",".","|",6,"_",8,".","|",".",".",8,6,"|",8,"_",6,".","|",".","_","_","_","|","_","_",6,".","|",".","_","_","_","|","_","_","_",".","|"],[".","_",".",".","|",".","_","_","_","|","_","_","_",5,"|",".","_",".",".","|",".",".",".",".","|",".","_",".",".","|",7,"_","_","_","|","_","_",".",".","|",".","_","_","_","|","_","_","_",".","|"],[10,"_",7,10,"|",7,"_","_","_","|","_","_","_",".","|",".","_",".",".","|",".",".",".",".","|",".","_",".",".","|",".","_","_","_","|","_","_",".",".","|",".","_","_","_","|","_","_","_",".","|"],[".","_",".",".","|",".","_","_","_","|","_","_","_",".","|",".","_",".",".","|",".",".",".",".","|",".","_",".",".","|",".","_","_","_","|","_","_",".",".","|",".","_","_","_","|","_","_","_",".","|"],[".","_",".",".","|",".","_","_","_","|","_","_","_",".","|",".","_",".",".","|",".",".",".",".","|",".","_",".",".","|",".","_","_","_","|","_","_",".",".","|",".","_","_","_","|","_","_","_",".","|"]],[[5,".","_","_","|","_","_",".",".","|",10,"_","_","_","|","_","_","_",5,"|",5,".","_","_","|","_","_",".",".","|",".","_","_","_","|","_","_","_","|",".","_",".",".","|",".","_","_","_","|"],[".",6,"_","_","|","_","_",".",10,"|",".","_","_","_","|","_","_","_",".","|",".",6,"_","_","|","_","_",".",".","|",".","_","_","_","|","_","_","_","|",".","_",".",".","|",".","_","_","_","|"],[".",".","_","_","|","_","_",10,".","|",".","_","_","_","|","_","_","_",".","|",".",".","_","_","|","_","_",7,5,"|",7,"_","_","_","|","_","_","_","|",".","_",".",".","|",7,"_","_","_","|"],[".",".","_","_","|","_","_",".",".","|",".","_","_","_","|","_","_","_",".","|",".",".","_","_","|","_","_",".",".","|",7,"_","_","_","|","_","_","_","|",10,"_",7,10,"|",".","_","_","_","|"],[".",".","_","_","|","_","_",".",".","|",".","_","_","_","|","_","_","_",".","|",".",".","_","_","|","_","_",".",".","|",".","_","_","_","|","_","_","_","|",".","_",".",".","|",".","_","_","_","|"],[".",".","_","_","|","_","_",".",".","|",".","_","_","_","|","_","_","_",".","|",".",".","_","_","|","_","_",".",".","|",".","_","_","_","|","_","_","_","|",".","_",".",".","|",".","_","_","_","|"]],[[".","_",".",".","|",".","_","_","|",".","_",".",".","|","_","_","_","|",".","_",".",".","|",".","_",".",".","|",".","_","_","|","_","_","_","|","_","_","_","|","_","_","_",".","|"],[".","_",".",".","|",".","_","_","|",".","_",".",".","|","_","_","_","|",".","_",".",".","|",".","_",".",".","|",".","_","_","|","_","_","_","|","_","_","_","|","_","_","_",".","|"],[".","_",".",".","|",7,"_","_","|",9,"_",".",9,"|","_","_","_","|",7,"_",".",7,"|",".","_",7,".","|",".","_","_","|","_","_","_","|","_","_","_","|","_","_","_",".","|"],[10,"_",7,10,"|",".","_","_","|",".","_",7,".","|","_","_","_","|",".","_",7,".","|",10,"_",".",10,"|",7,"_","_","|","_","_","_","|","_","_","_","|","_","_","_",7,"|"],[".","_",".",".","|",".","_","_","|",".","_",".",".","|","_","_","_","|",".","_",".",".","|",".","_",".",".","|",".","_","_","|","_","_","_","|","_","_","_","|","_","_","_",".","|"],[".","_",".",".","|",".","_","_","|",".","_",".",".","|","_","_","_","|",".","_",".",".","|",".","_",".",".","|",".","_","_","|","_","_","_","|","_","_","_","|","_","_","_",".","|"]],[[".","_",".",".","|",".",".",".",".","|",".","_",".",".","|",".","_","_","|","_","_","_",".","|",".","_",".",5,"|",6,5,".",".","|",".","_",".",".","|",".","_","_","|","_","_",".",5,"|",8,"_","_","|"],[".","_",".",".","|",8,".",".",".","|",".","_",".",".","|",".","_","_","|","_","_","_",".","|",6,"_",8,".","|",".",".",8,6,"|",8,"_",6,".","|",".","_","_","|","_","_",6,".","|",".","_","_","|"],[7,"_",9,10,"|",".",10,9,7,"|",".","_",".",".","|",".","_","_","|","_","_","_",5,"|",".","_",".",".","|",".",".",".",".","|",".","_",".",9,"|",7,"_","_","|","_","_",".",".","|",".","_","_","|"],[".","_",".",".","|",".",".",".",".","|",10,"_",7,10,"|",7,"_","_","|","_","_","_",".","|",".","_",".",".","|",".",".",".",".","|",".","_",".",".","|",".","_","_","|","_","_",".",".","|",".","_","_","|"],[".","_",".",".","|",".",".",".",".","|",".","_",".",".","|",".","_","_","|","_","_","_",".","|",".","_",".",".","|",".",".",".",".","|",".","_",".",".","|",".","_","_","|","_","_",".",".","|",".","_","_","|"],[".","_",".",".","|",".",".",".",".","|",".","_",".",".","|",".","_","_","|","_","_","_",".","|",".","_",".",".","|",".",".",".",".","|",".","_",".",".","|",".","_","_","|","_","_",".",".","|",".","_","_","|"]],[["_","_",5,"|",5,".","_","_","|","_","_",".",".","|",10,"_","_","|","_","_",5,".","|",".","_","_","|","_","_",6,".","|",".","_","_","|","_","_",6,".","|",".","_","_","|","_","_",".","|",".","_","_","|"],["_","_",".","|",".",6,"_","_","|","_","_",".",10,"|",".","_","_","|","_","_",".",6,"|",".","_","_","|","_","_",".",6,"|",".","_","_","|","_","_",".",6,"|",".","_","_","|","_","_",".","|",".","_","_","|"],["_","_",".","|",".",".","_","_","|","_","_",10,".","|",".","_","_","|","_","_",".",".","|",7,"_","_","|","_","_",".",".","|",7,"_","_","|","_","_",".",".","|",8,"_","_","|","_","_",9,"|",".","_","_","|"],["_","_",".","|",".",".","_","_","|","_","_",".",".","|",".","_","_","|","_","_",".",".","|",".","_","_","|","_","_",".",".","|",".","_","_","|","_","_",".",".","|",".","_","_","|","_","_",".","|",7,"_","_","|"],["_","_",".","|",".",".","_","_","|","_","_",".",".","|",".","_","_","|","_","_",".",".","|",".","_","_","|","_","_",".",".","|",".","_","_","|","_","_",".",".","|",".","_","_","|","_","_",".","|",".","_","_","|"],["_","_",".","|",".",".","_","_","|","_","_",".",".","|",".","_","_","|","_","_",".",".","|",".","_","_","|","_","_",".",".","|",".","_","_","|","_","_",".",".","|",".","_","_","|","_","_",".","|",".","_","_","|"]],[["_","_","_","_","|","_","_","_","|","_","_","_",".","|",".","_",".",".","|",".",".",".","_","|",".","_","_","_","|",".","_","_","|","_","_","_","|","_","_","_","|","_","_","_","|","_","_","_","|","_","_","_","|"],["_","_","_","_","|","_","_","_","|","_","_","_",".","|",".","_",".",".","|",".",".",".","_","|",".","_","_","_","|",10,"_","_","|","_","_","_","|","_","_","_","|","_","_","_","|","_","_","_","|","_","_","_","|"],["_","_","_","_","|","_","_","_","|","_","_","_",".","|",7,"_",9,10,"|",9,7,".","_","|",7,"_","_","_","|",".","_","_","|","_","_","_","|","_","_","_","|","_","_","_","|","_","_","_","|","_","_","_","|"],["_","_","_","_","|","_","_","_","|","_","_","_",7,"|",".","_",".",".","|",".",".",10,"_","|",".","_","_","_","|",".","_","_","|","_","_","_","|","_","_","_","|","_","_","_","|","_","_","_","|","_","_","_","|"],["_","_","_","_","|","_","_","_","|","_","_","_",".","|",".","_",".",".","|",".",".",".","_","|",".","_","_","_","|",".","_","_","|","_","_","_","|","_","_","_","|","_","_","_","|","_","_","_","|","_","_","_","|"],["_","_","_","_","|","_","_","_","|","_","_","_",".","|",".","_",".",".","|",".",".",".","_","|",".","_","_","_","|",".","_","_","|","_","_","_","|","_","_","_","|","_","_","_","|","_","_","_","|","_","_","_","|"]],[["_","_","_",".","|",".","_",".",".","|",".",".",".","_","|",".","_","_","_","|",".","_","_","_","|",".",".",".",".",".","|",".",".","_",".","|",".","_","_","|","_","_","_","|","_","_","_","|","_","_","_","|","_","_","_","|"],["_","_","_",".","|",".","_",".",".","|",".",".",".","_","|",".","_","_","_","|",".","_","_","_","|",".",".",".",".",".","|",".",".","_",".","|",".","_","_","|","_","_","_","|","_","_","_","|","_","_","_","|","_","_","_","|"],["_","_","_",".","|",7,"_",9,10,"|",9,7,".","_","|",7,"_","_","_","|",".","_","_","_","|",5,"/",7,9,10,"|",9,7,"_",".","|",7,"_","_","|","_","_","_","|","_","_","_","|","_","_","_","|","_","_","_","|"],["_","_","_",7,"|",".","_",".",".","|",".",".",10,"_","|",".","_","_","_","|",7,"_","_","_","|",".",".",".",".",".","|",".",".","_",10,"|",".","_","_","|","_","_","_","|","_","_","_","|","_","_","_","|","_","_","_","|"],["_","_","_",".","|",".","_",".",".","|",".",".",".","_","|",".","_","_","_","|",".","_","_","_","|",".",".",".",".",".","|",".",".","_",".","|",".","_","_","|","_","_","_","|","_","_","_","|","_","_","_","|","_","_","_","|"],["_","_","_",".","|",".","_",".",".","|",".",".",".","_","|",".","_","_","_","|",".","_","_","_","|",".",".",".",".",".","|",".",".","_",".","|",".","_","_","|","_","_","_","|","_","_","_","|","_","_","_","|","_","_","_","|"]],[["_","_","_","|","_","_","_","|","_","_","_",".","|",".","_",".",".","|",".",".","_",".","|",".","_","_","_","|",".","_","_","_","|",".",".",".",".",".","|",".",".","_",".","|",".","_","_","_","|","_","_","_","|","_","_","_","|"],["_","_","_","|","_","_","_","|","_","_","_",".","|",".","_",".",".","|",".",".","_",".","|",".","_","_","_","|",".","_","_","_","|",".",".",".",".",".","|",".",".","_",".","|",".","_","_","_","|","_","_","_","|","_","_","_","|"],["_","_","_","|","_","_","_","|","_","_","_",".","|",7,"_",9,10,"|",9,7,"_",".","|",7,"_","_","_","|",".","_","_","_","|",5,"/",7,9,10,"|",9,7,"_",10,"|",7,"_","_","_","|","_","_","_","|","_","_","_","|"],["_","_","_","|","_","_","_","|","_","_","_",7,"|",".","_",".",".","|",".",".","_",10,"|",".","_","_","_","|",7,"_","_","_","|",".",".",".",".",".","|",".",".","_",".","|",".","_","_","_","|","_","_","_","|","_","_","_","|"],["_","_","_","|","_","_","_","|","_","_","_",".","|",".","_",".",".","|",".",".","_",".","|",".","_","_","_","|",".","_","_","_","|",".",".",".",".",".","|",".",".","_",".","|",".","_","_","_","|","_","_","_","|","_","_","_","|"],["_","_","_","|","_","_","_","|","_","_","_",".","|",".","_",".",".","|",".",".","_",".","|",".","_","_","_","|",".","_","_","_","|",".",".",".",".",".","|",".",".","_",".","|",".","_","_","_","|","_","_","_","|","_","_","_","|"]],[["_","_","_","|",".","_","_","_","|"],["_","_","_","|",".","_","_","_","|"],["_","_","_","|",".","_","_","_","|"],["_","_","_","|",0,"_","_","_","|"],["_","_","_","|",".","_","_","_","|"],["_","_","_","|",".","_","_","_","|"]]],"numberofstrings":6,"notes":["E","B","G","D","A","E","B"],"capo":0,"stringnotes":["E4","B3","G3","D3","A2","E2"],"comments":["Stave 1:","Stave 2:","Stave 3:","Stave 4:","Stave 5:","Stave 6:","Stave 7:","Stave 8:","Stave 9:","Stave 10:","Stave 11:","Stave 12:","Stave 13:","Stave 14:","Stave 15:","Stave 16:"],"timing":[["W",null,null,"W",null,"W",null,"W","W",null,"W","W","W","W",null,"W",null,"W","W",null,"W",null,null,null,null,null,null,null,"W",null,"W",null,"W","W",null,"W","W","W","W",null,"W",null,"W","W",null,"W",null,null,null,null,"W"],[null,null,null,"W",null,"W",null,"W","W",null,"W","W","W","W",null,"W",null,"W","W",null,"W",null,null,null,null,"W","W","W","W",null,"W","W","W","W",null,"W","W",null,"W",null,"W",null,null,null,null,null,null,"W","W",null,"W"],[null,null,"W","W",null,"W",null,null,null,null,null,null,null,null,null,null,null,null,null,null,null,null,null,"W",null,"W",null,"W","W",null,"W","W","W","W",null,"W",null,"W","W",null,"W",null,null,null,null,null,null,null,"W",null,"W"],["W",null,"W","W",null,"W","W","W","W",null,"W",null,"W","W",null,"W",null,null,null,null,null,null,"W","W","W","W",null,null,null,null,"W","W","W","W",null,"W",null,null,null,null,"W","W","W","W",null,"W",null,null,null,null,"W"],["W",null,null,null,null,null,null,"W","W",null,"W",null,null,null,null,null,null,null,null,null,null,null,null,null,null,null,null,null,"W",null,"W","W","W","W",null,"W","W","W","W",null,"W","W","W","W",null,"W","W","W","W",null,"W"],["W","W","W","W",null,"W",null,null,null,null,null,null,null,null,null,null,null,null,"W",null,"W","W","W","W",null,"W","W","W","W",null,"W","W","W","W",null,"W","W","W","W",null,"W","W","W","W",null,"W","W","W"],["W",null,null,null,null,null,null,null,null,null,"W",null,null,null,null,"W",null,"W","W",null,"W",null,null,null,null,null,null,null,null,null,null,null,null,null,null,null,null,null,"W",null,"W",null,"W","W",null,"W","W","W","W"],["W",null,"W","W",null,"W",null,null,null,null,null,null,null,"W",null,"W",null,"W","W",null,"W","W","W","W",null,"W",null,"W","W",null,"W",null,null,null,null,null,null,"W","W",null,"W",null,null,null,null,null,null,null,"W"],["W","W",null,null,null,null,null,"W","W",null,"W",null,null,null,null,null,null,null,"W",null,"W","W",null,null,null,"W","W","W","W",null,"W",null,null,null,null,null,null,null,null,"W","W","W","W",null,"W"],["W",null,"W","W",null,"W",null,null,null,"W",null,"W","W",null,null,null,null,null,"W",null,"W","W",null,"W",null,"W","W",null,"W",null,null,null,null,null,null,null,null,null,null,null,null,null,null,"W"],["W",null,"W","W",null,"W","W","W","W",null,"W",null,"W","W","W","W",null,null,null,null,null,null,"W",null,"W",null,"W","W",null,"W","W","W","W",null,"W",null,"W","W",null,"W",null,null,null,null,null,"W","W",null,"W"],[null,null,"W",null,"W","W",null,null,null,null,null,"W","W",null,"W",null,null,null,null,null,"W","W",null,"W",null,null,null,null,null,"W","W",null,"W",null,null,null,null,null,"W","W",null,"W",null,null,null,null,null,"W",null,"W"],[null,null,null,null,null,null,null,null,null,null,null,null,"W",null,"W",null,"W","W",null,"W","W","W",null,null,"W",null,null,null,null,"W"],[null,null,null,"W",null,"W",null,"W","W",null,"W","W","W",null,null,"W",null,null,null,null,"W",null,null,null,null,"W",null,"W","W","W",null,"W","W",null,"W",null,"W"],[null,null,null,null,null,null,null,null,null,null,null,"W",null,"W",null,"W","W",null,"W","W",null,"W",null,"W",null,null,null,null,"W",null,null,null,null,"W",null,"W","W","W",null,"W","W",null,"W",null,"W"],[null,null,null,null,"W"]],"timingvisible":false,"tabcounter":9,"stave":15,"totalstaves":16,"instrument":"6guitar","selectedtuning":"6_standard","version":"13"}

Member for

1 month 2 weeks
Submitted by ak on Sat, 2021-03-06 12:59