Sound will begin in 5 seconds

Breaking Through (C)

Chords
01234567891011121314151617181920212223
E
B
G
D
A
E
B
0 1 2 3 4 5 6 7 8 9 10 11 12 13 14 15 16 17 18 19 20 21 22 23
Song Science #1: How Pros Use 6 Chords to Write Hit Songs
(/) Slide Up  (\) Slide Down  (h) Hammer On  (p) Pull Off  (b) Bend (r) Release (v) Vibrato

Stave 1:

E|-5-5-5-----5-5-5-----5-5-5---------
B|-------8-5-------8---------8-------
G|-------------------7---------5-4-2-
D|-----------------------------------
A|-----------------------------------
E|-----------------------------------

Stave 2:

E|-12----12----12----12----10----10----10----10----
B|----13----13----13----13----13----13----13----13-
G|-------------------------------------------------
D|-------------------------------------------------
A|-------------------------------------------------
E|-------------------------------------------------

Stave 3:

E|-----------------------------------------3-------
B|-5---5---5---5---3---3---3---3-----3---3---3---3-
G|---5---5---5---5---5---5---5---5-4---4-------4---
D|-------------------------------------------------
A|-------------------------------------------------
E|-------------------------------------------------

Stave 4:

E|---8-----8-----8----8------8------8---5-----5-----5---5-----5-----5-
B|-----8-----8----------8------8----------6-----6---------5-----5-----
G|-9-----9-----9---10-----10-----10---7-----7-----7---5-----5-----5---
D|--------------------------------------------------------------------
A|--------------------------------------------------------------------
E|--------------------------------------------------------------------

Stave 5:

E|-----------------------------------
B|---5-------10--------6-------1-----
G|-------0---------0-------0-------0-
D|-----5--------10-------7-------2---
A|-3-------8---------5-------0-------
E|-----------------------------------

Stave 6:

E|-0-0---0-1-3-0-
B|-1-1-1-1-3-0-1-
G|-0-0-2-0-2-0-2-
D|-2-2-3-2-0-0-3-
A|-0-3-3-3-0-2-3-
E|-----------3---

http://www.guitartabcreator.com
Guitar Tab Creator is intended to store guitar tab created through the tool. It currently does not support in-line text editing. Any text you place in here will be lost. If you need to comment on your tab, please use the "Tab Notes" section located below.