Sound will begin in 5 seconds

Test

01234567891011121314151617181920212223
E
B
G
D
A
E
B
0 1 2 3 4 5 6 7 8 9 10 11 12 13 14 15 16 17 18 19 20 21 22 23
Song Science #1: How Pros Use 6 Chords to Write Hit Songs
(/) Slide Up  (\) Slide Down  (h) Hammer On  (p) Pull Off  (b) Bend (r) Release (v) Vibrato

Stave 1:

E|-----5---------------12--10-------------------------------------------------------------
B|--5-----5--8/10--10----------13------10--13b14--10--------------------------------------
G|---------------------------------12-----------------7b8b7--5----------------5b6---------
D|--------------------------------------------------------------7-------5--7-------7v--v--
A|-----------------------------------------------------------------5/7--------------------
E|----------------------------------------------------------------------------------------

Stave 2:

E|------------5------------------------5-------------------------------------
B|---------------5----------8------------------------------------------------
G|--7b8--7b8--------7--7/9-----9--9\7-----8\7--5-----------------5b6---------
D|------------------------------------------------7v--v-------5-------7v--v--
A|-------------------------------------------------------5/7-----------------
E|---------------------------------------------------------------------------

Stave 3:

E|-----------------------------------------------------------------------------------------
B|----------15b17--15--13--12--13p10------10--13--10v--v-----------------------------------
G|--14--14----------------------------12------------------7b8b7--5-------------------------
D|------------------------------------------------------------------7v--v--5---------------
A|----------------------------------------------------------------------------7--7--7v--v--
E|-----------------------------------------------------------------------------------------

http://www.guitartabcreator.com
Guitar Tab Creator is intended to store guitar tab created through the tool. It currently does not support in-line text editing. Any text you place in here will be lost. If you need to comment on your tab, please use the "Tab Notes" section located below.