Riff Idea

Chords

01234567891011121314151617181920212223
E
B
G
D
A
E
B
0 1 2 3 4 5 6 7 8 9 10 11 12 13 14 15 16 17 18 19 20 21 22 23
(/) Slide Up  (\) Slide Down  (h) Hammer On  (p) Pull Off  (b) Bend (r) Release (v) Vibrato

Stave 1:

D|-------------------------------------------------------------------------------------------------------------------------------------------------------------------------------------------
A|-------------------------------------------------------------------------------------------------------------------------------------------------------------------------------------------
F|---------------------------------------------------------------------------------------------------------------------------------------------10--10--10------------------------------------
C|---------------------------------------------------------------------------------------------------------------------13--13--13--10--10--10--------------12--12--12------------------------
G|--------13--12--10--12--10------------13--12--10--12--10------10-----------------------13--12--10--12--10------------------------------------------------------------------13--12--10--12--
C|--0-------------------------13--0-------------------------13------13--12--10-----0-------------------------13--0-----------------------------------------------------0---------------------

Stave 2:

D|---------------------------------------------------------------------------------------------------------------------------------------------------
A|---------------------------------------------------------------------------------------------------------------------------------------------------
F|--------------------------------------------------------------------------------------------------------------------------------------8------------
C|--------------------------------------------------------------------------------------------------------------------------------------12-----------
G|--10------------13--12--10--12--10------10-----------------------13--12--10--12--10------------------------------1--1--1--0--0--0---------0--------
C|------13--0-------------------------13------13--12--10-----0-------------------------13--0-----4--4--4--1--1--1---------------------------0--------

							http://www.guitartabcreator.com
genre
Instruments
{"strings":[[[".","_",".",".",".",".",".",".",".","_",".",".",".",".",".",".",".",".",".",".","_",".","_",".",".",".",".",".",".",".","_",".",".",".",".",".",".",".",".",".",".",".",".",".","_",".",".",".","."],[".","_",".",".",".",".",".",".",".","_",".",".",".",".",".",".",".",".",".",".","_",".","_",".",".",".",".",".",".",".","_",".",".",".",".",".",".",".",".",".",".",".",".",".","_",".",".",".","."],[".","_",".",".",".",".",".",".",".","_",".",".",".",".",".",".",".",".",".",".","_",".","_",".",".",".",".",".",".",".","_",".",".",".",".",".",".",10,10,10,".",".",".",".","_",".",".",".","."],[".","_",".",".",".",".",".",".",".","_",".",".",".",".",".",".",".",".",".",".","_",".","_",".",".",".",".",".",".",".","_",13,13,13,10,10,10,".",".",".",12,12,12,".","_",".",".",".","."],[".","_",13,12,10,12,10,".",".","_",13,12,10,12,10,".",10,".",".",".","_",".","_",13,12,10,12,10,".",".","_",".",".",".",".",".",".",".",".",".",".",".",".",".","_",13,12,10,12],[0,"_",".",".",".",".",".",13,0,"_",".",".",".",".",".",13,".",13,12,10,"_",0,"_",".",".",".",".",".",13,0,"_",".",".",".",".",".",".",".",".",".",".",".",".",0,"_",".",".",".","."]],[[".",".",".","_",".",".",".",".",".",".",".",".",".",".","_",".","_",".",".",".",".",".",".",".","_",".",".",".",".",".",".",".",".",".",".",".",".","_",".",".","_","_"],[".",".",".","_",".",".",".",".",".",".",".",".",".",".","_",".","_",".",".",".",".",".",".",".","_",".",".",".",".",".",".",".",".",".",".",".",".","_",".",".","_","_"],[".",".",".","_",".",".",".",".",".",".",".",".",".",".","_",".","_",".",".",".",".",".",".",".","_",".",".",".",".",".",".",".",".",".",".",".",".","_",8,".","_","_"],[".",".",".","_",".",".",".",".",".",".",".",".",".",".","_",".","_",".",".",".",".",".",".",".","_",".",".",".",".",".",".",".",".",".",".",".",".","_",12,".","_","_"],[10,".",".","_",13,12,10,12,10,".",10,".",".",".","_",".","_",13,12,10,12,10,".",".","_",".",".",".",".",".",".",1,1,1,0,0,0,"_",".",0,"_","_"],[".",13,0,"_",".",".",".",".",".",13,".",13,12,10,"_",0,"_",".",".",".",".",".",13,0,"_",4,4,4,1,1,1,".",".",".",".",".",".","_",".",0,"_","_"]]],"numberofstrings":6,"notes":["D","A","F","C","G","C"],"capo":0,"stringnotes":["D3","A2","F2","C2","G1","C1"],"comments":["Stave 1:","Stave 2:"],"timing":[[null,null,null,null,null,null,null,null,null,null,null,null,null,null,null,null,null,null,null,null,null,null,null,null,null,null,null,null,null,null,null,null,null,null,null,null,null,null,null,null,null,null,null,null,null,null,null,null,null,null],[null,null,null,null,null,null,null,null,null,null,null,null,null,null,null,null,null,null,null,null,null,null,null,null,null,null,null,null,null,null,null,null,null,null,null,null,null,null,null,null]],"timingvisible":false,"tabcounter":42,"stave":1,"totalstaves":2,"instrument":"6guitar","selectedtuning":"Drop C","version":"13"}

Member for

1 month 4 weeks
Submitted by ajacobm11 on Wed, 2020-11-18 15:08