Sound will begin in 5 seconds

The Once and Future King

Chords
01234567891011121314151617181920212223
E
B
G
D
A
E
B
0 1 2 3 4 5 6 7 8 9 10 11 12 13 14 15 16 17 18 19 20 21 22 23
Song Science #1: How Pros Use 6 Chords to Write Hit Songs
(/) Slide Up  (\) Slide Down  (h) Hammer On  (p) Pull Off  (b) Bend (r) Release (v) Vibrato

Stave 1:

E|-10-------10-------10-------10-------11-------11-------11-------11-------
B|------8--------8--------8--------8--------8--------8--------8--------8---
G|----0---0----0---0----0---0----0---0----0---0----0---0----0---0----0---0-
D|-------------------------------------------------------------------------
A|-------------------------------------------------------------------------
E|-------------------------------------------------------------------------

Stave 2:

E|-3-------3-------3-------3-------6-------6-------6-------6-------
B|-----3-------3-------3-------3-------3-------3-------3-------3---
G|---0---0---0---0---0---0---0---0---0---0---0---0---0---0---0---0-
D|-----------------------------------------------------------------
A|-----------------------------------------------------------------
E|-----------------------------------------------------------------

Stave 3:

E|-8-------8-------8-------8-------9-------9-------9-------9-------
B|-----8-------8-------8-------8-------7-------7-------7-------7---
G|---0---0---0---0---0---0---0---0---0---0---0---0---0---0---0---0-
D|-----------------------------------------------------------------
A|-----------------------------------------------------------------
E|-----------------------------------------------------------------

Stave 4:

E|-----------------------------------------
B|-----------------------------------------
G|-----------------------------12-12-12-12-
D|-5-5-5-5-5-5-5-5-12-12-15-15-10-10-11-11-
A|-5-5-6-6-5-5-6-6-10-10-13-13-10-10-9--9--
E|-5-5-5-5-5-5-5-5-12-12-12-12-10-10-10-10-

Stave 5:

E|------------------------
B|------------------------
G|------------------------
D|-12-11-9----------------
A|---------13-12-10-------
E|------------------14-13-

Stave 6:

E|----------------------15-10-11-10--------------------------------------------------
B|-----------------------------------------------------------------------------------
G|----------------------------------12-10-13-12----------------------------------5-8-
D|-------------------------------------------------------------------------4-5-7-----
A|-0-0-0-0----0----0----------------------------0-0-0-0----0----0----5-6-8-----------
E|-0-0-0-0----0----0----------------------------0-0-0-0----0----0--------------------

Stave 7:

E|-------------------------------------------
B|-------------------------------------------
G|----------------------5-8-7-15-14-10-9-7-6-
D|-------------------------------------------
A|-0-0-0-0----0----0----3-6-5-13-12-8--7-5-4-
E|-0-0-0-0----0----0-------------------------

Stave 8:

E|---------------------------------------------------------------------
B|---------------------------------------------------------------------
G|---------------------------------------------------------------------
D|---------------------------------------------------------------------
A|-4-5---------5-7-8-7---------10-12-13-12---------3-5-6-5-3-----------
E|-----0-0-0-0---------0-0-0-0-------------0-0-0-0-----------5-3-2-3-2-

Stave 9:

E|-------------------------------------------------------------------------
B|-------------------------------------------------------------------------
G|-------------------------------------------------------------------------
D|-------------------------------------------------------------------------
A|-------------------------------------------------------------------------
E|-1-0-0-0-0-0-1-0-1-0-0-0-0-0-0-0-1-1-1-1/13-13-13-13\1-1-1-1/13-13-13-13-

Stave 10:

E|---------------------------------------------
B|---------------------------------------------
G|---------------------------------------------
D|-0-------------1-------------5-------------3-
A|-0-------------1-------------5-------------3-
E|-0-------------1-------------5-------------3-

Stave 11:

E|---------------------------------------------------------------
B|---------------------------------------------------------------
G|---------------------------------------------------------------
D|---------------------------------------------------------------
A|----------------------------------------------8-12-13-12-------
E|-0----0----0----0----0----0----0----0----8-12------------13-12-

Stave 12:

E|---------------------------------------------------------
B|---------------------------------------------------------
G|-----------------------------------------------------5-7-
D|---------------------------------------------3-7---------
A|-------------------------------------------------5-8-----
E|-8----8----8----8----8----8----8----8----3-7-------------

Stave 13:

E|-----------------------------------------------------------------------
B|-----------------------------------------------------------------------
G|-----------------------------------------------------------------------
D|-----------------------------------------------------------------5-7-8-
A|-5-7---------7-8-7-8---------10-12---------12-13-12-13-----5-7-8-------
E|-----0-0-0-0---------0-0-0-0-------0-0-0-0-------------0-0-------------

Stave 14:

E|-------------------------------------------------------------------------------
B|-------------------------------------------------------------------------------
G|-------------------------------------------------------------------------15-14-
D|----------------------------------------------------------------13-12-10-------
A|-4-5---------5-7-8-7---------10-12-13-12---------10-12-13-12-10----------------
E|-----0-0-0-0---------0-0-0-0-------------0-0-0-0-------------------------------

Stave 15:

E|----------------
B|----------------
G|-12----15----14-
D|-------------0--
A|-------------0--
E|-------------0--

http://www.guitartabcreator.com
Guitar Tab Creator is intended to store guitar tab created through the tool. It currently does not support in-line text editing. Any text you place in here will be lost. If you need to comment on your tab, please use the "Tab Notes" section located below.