Titanium

Chords

01234567891011121314151617181920212223
E
B
G
D
A
E
B
0 1 2 3 4 5 6 7 8 9 10 11 12 13 14 15 16 17 18 19 20 21 22 23
(/) Slide Up  (\) Slide Down  (h) Hammer On  (p) Pull Off  (b) Bend (r) Release (v) Vibrato

Stave 1:

E|-----------1--0--|-----3--1--0--0--0-----1--|-----------1--0--|--------------|--
B|--1--1--3--------|--1-----------------3-----|--1--1--3--------|--1--1--3-----|--
G|-----------------|--------------------------|-----------------|-----------2--|--
D|-----------------|--------------------------|-----------------|--------------|--
A|-----------------|--------------------------|-----------------|--------------|--
E|-----------------|--------------------------|-----------------|--------------|--

Stave 2:

E|-----1--1--0--|--------0--0--|--------0--|-----------|--1--1--0--|--------0--0--|--------0--|-----------|--
B|--------------|--0--0--------|--0--0-----|--0--1-----|-----------|--0--0--------|--0--0-----|--0--1-----|--
G|--2-----------|--------------|-----------|--------2--|-----------|--------------|-----------|--------2--|--
D|--------------|--------------|-----------|-----------|-----------|--------------|-----------|-----------|--
A|--------------|--------------|-----------|-----------|-----------|--------------|-----------|-----------|--
E|--------------|--------------|-----------|-----------|-----------|--------------|-----------|-----------|--

Stave 3:

E|--5--5--3--|--0--0--3--3--|--0--0--0--8--7--5--|--
B|-----------|--------------|--------------------|--
G|-----------|--------------|--------------------|--
D|-----------|--------------|--------------------|--
A|-----------|--------------|--------------------|--
E|-----------|--------------|--------------------|--

							http://www.guitartabcreator.com
Instruments
{"strings":[[[".",".",".",1,0,"|",".",3,1,0,0,0,".",1,"|",".",".",".",1,0,"|",".",".",".",".","|"],[1,1,3,".",".","|",1,".",".",".",".",".",3,".","|",1,1,3,".",".","|",1,1,3,".","|"],[".",".",".",".",".","|",".",".",".",".",".",".",".",".","|",".",".",".",".",".","|",".",".",".",2,"|"],[".",".",".",".",".","|",".",".",".",".",".",".",".",".","|",".",".",".",".",".","|",".",".",".",".","|"],[".",".",".",".",".","|",".",".",".",".",".",".",".",".","|",".",".",".",".",".","|",".",".",".",".","|"],[".",".",".",".",".","|",".",".",".",".",".",".",".",".","|",".",".",".",".",".","|",".",".",".",".","|"]],[[".",1,1,0,"|",".",".",0,0,"|",".",".",0,"|",".",".",".","|",1,1,0,"|",".",".",0,0,"|",".",".",0,"|",".",".",".","|"],[".",".",".",".","|",0,0,".",".","|",0,0,".","|",0,1,".","|",".",".",".","|",0,0,".",".","|",0,0,".","|",0,1,".","|"],[2,".",".",".","|",".",".",".",".","|",".",".",".","|",".",".",2,"|",".",".",".","|",".",".",".",".","|",".",".",".","|",".",".",2,"|"],[".",".",".",".","|",".",".",".",".","|",".",".",".","|",".",".",".","|",".",".",".","|",".",".",".",".","|",".",".",".","|",".",".",".","|"],[".",".",".",".","|",".",".",".",".","|",".",".",".","|",".",".",".","|",".",".",".","|",".",".",".",".","|",".",".",".","|",".",".",".","|"],[".",".",".",".","|",".",".",".",".","|",".",".",".","|",".",".",".","|",".",".",".","|",".",".",".",".","|",".",".",".","|",".",".",".","|"]],[[5,5,3,"|",0,0,3,3,"|",0,0,0,8,7,5,"|"],[".",".",".","|",".",".",".",".","|",".",".",".",".",".",".","|"],[".",".",".","|",".",".",".",".","|",".",".",".",".",".",".","|"],[".",".",".","|",".",".",".",".","|",".",".",".",".",".",".","|"],[".",".",".","|",".",".",".",".","|",".",".",".",".",".",".","|"],[".",".",".","|",".",".",".",".","|",".",".",".",".",".",".","|"]]],"numberofstrings":6,"notes":["E","B","G","D","A","E","B"],"capo":0,"stringnotes":["E4","B3","G3","D3","A2","E2"],"comments":["Stave 1:","Stave 2:","Stave 3:"],"timing":[["W","W","W","W","W",null,"W","W","W","W","W","W","W","W",null,"W","W","W","W","W",null,"W","W","W","W"],["W","W","W","W",null,"W","W","W","W",null,"W","W","W",null,"W","W","W",null,"W","W","W",null,"W","W","W","W",null,"W","W","W",null,"W","W","W"],["W","W","W",null,"W","W","W","W",null,"W","W","W","W","W","W",null,"W"]],"timingvisible":false,"tabcounter":16,"stave":2,"totalstaves":3,"instrument":"6guitar","selectedtuning":"6_standard","version":"13"}

Member for

7 months 1 week
Submitted by Ahmed wagdy555 on Sat, 2020-11-21 10:30