Cheap thrills

01234567891011121314151617181920212223
E
B
G
D
A
E
B
0 1 2 3 4 5 6 7 8 9 10 11 12 13 14 15 16 17 18 19 20 21 22 23
(/) Slide Up  (\) Slide Down  (h) Hammer On  (p) Pull Off  (b) Bend (r) Release (v) Vibrato

Stave 1:

E|--------------|-----------0--0--|-----------|--------0--------|-----------------|-----------0--0--|-----------|--------0--------|--
B|-----0-----0--|--0-----0--------|--3--3--3--|--3--3-----3--3--|--0-----0--0--0--|--0-----0--------|--3--3--3--|--3--3-----3--3--|--
G|--2-----2-----|-----2-----------|-----------|-----------------|-----2-----------|-----2-----------|-----------|-----------------|--
D|--------------|-----------------|-----------|-----------------|-----------------|-----------------|-----------|-----------------|--
A|--------------|-----------------|-----------|-----------------|-----------------|-----------------|-----------|-----------------|--
E|--------------|-----------------|-----------|-----------------|-----------------|-----------------|-----------|-----------------|--

Stave 2:

E|--2--3--|--3--5--2--3--|--3--5--2--3--|--3--3--3--------|--0--2--3--5--2--|--3--3--5--2--|--3--3--3--------|--
B|--------|--------------|--------------|-----------3--3--|-----------------|--------------|-----------3--3--|--
G|--------|--------------|--------------|-----------------|-----------------|--------------|-----------------|--
D|--------|--------------|--------------|-----------------|-----------------|--------------|-----------------|--
A|--------|--------------|--------------|-----------------|-----------------|--------------|-----------------|--
E|--------|--------------|--------------|-----------------|-----------------|--------------|-----------------|--

Stave 3:

E|--0--2--3--2--0--0--|--0--0--0--0--|--0--2--0--------|--|--
B|--------------------|--------------|-----------3--3--|--|--
G|--------------------|--------------|-----------------|--|--
D|--------------------|--------------|-----------------|--|--
A|--------------------|--------------|-----------------|--|--
E|--------------------|--------------|-----------------|--|--

Stave 4:

E|-----0--2--3--2--0--2--0--|--------|--------0--2--3--2--0--2--0--|--------|--|--
B|--0-----------------------|--0-----|--0--0-----------------------|--0-----|--|--
G|--------------------------|-----2--|-----------------------------|-----2--|--|--
D|--------------------------|--------|-----------------------------|--------|--|--
A|--------------------------|--------|-----------------------------|--------|--|--
E|--------------------------|--------|-----------------------------|--------|--|--

							http://www.guitartabcreator.com
Chords

Instruments
{"strings":[[[".",".",".",".","|",".",".",".",0,0,"|",".",".",".","|",".",".",0,".",".","|",".",".",".",".",".","|",".",".",".",0,0,"|",".",".",".","|",".",".",0,".",".","|"],[".",0,".",0,"|",0,".",0,".",".","|",3,3,3,"|",3,3,".",3,3,"|",0,".",0,0,0,"|",0,".",0,".",".","|",3,3,3,"|",3,3,".",3,3,"|"],[2,".",2,".","|",".",2,".",".",".","|",".",".",".","|",".",".",".",".",".","|",".",2,".",".",".","|",".",2,".",".",".","|",".",".",".","|",".",".",".",".",".","|"],[".",".",".",".","|",".",".",".",".",".","|",".",".",".","|",".",".",".",".",".","|",".",".",".",".",".","|",".",".",".",".",".","|",".",".",".","|",".",".",".",".",".","|"],[".",".",".",".","|",".",".",".",".",".","|",".",".",".","|",".",".",".",".",".","|",".",".",".",".",".","|",".",".",".",".",".","|",".",".",".","|",".",".",".",".",".","|"],[".",".",".",".","|",".",".",".",".",".","|",".",".",".","|",".",".",".",".",".","|",".",".",".",".",".","|",".",".",".",".",".","|",".",".",".","|",".",".",".",".",".","|"]],[[2,3,"|",3,5,2,3,"|",3,5,2,3,"|",3,3,3,".",".","|",0,2,3,5,2,"|",3,3,5,2,"|",3,3,3,".",".","|"],[".",".","|",".",".",".",".","|",".",".",".",".","|",".",".",".",3,3,"|",".",".",".",".",".","|",".",".",".",".","|",".",".",".",3,3,"|"],[".",".","|",".",".",".",".","|",".",".",".",".","|",".",".",".",".",".","|",".",".",".",".",".","|",".",".",".",".","|",".",".",".",".",".","|"],[".",".","|",".",".",".",".","|",".",".",".",".","|",".",".",".",".",".","|",".",".",".",".",".","|",".",".",".",".","|",".",".",".",".",".","|"],[".",".","|",".",".",".",".","|",".",".",".",".","|",".",".",".",".",".","|",".",".",".",".",".","|",".",".",".",".","|",".",".",".",".",".","|"],[".",".","|",".",".",".",".","|",".",".",".",".","|",".",".",".",".",".","|",".",".",".",".",".","|",".",".",".",".","|",".",".",".",".",".","|"]],[[0,2,3,2,0,0,"|",0,0,0,0,"|",0,2,0,".",".","|","|"],[".",".",".",".",".",".","|",".",".",".",".","|",".",".",".",3,3,"|","|"],[".",".",".",".",".",".","|",".",".",".",".","|",".",".",".",".",".","|","|"],[".",".",".",".",".",".","|",".",".",".",".","|",".",".",".",".",".","|","|"],[".",".",".",".",".",".","|",".",".",".",".","|",".",".",".",".",".","|","|"],[".",".",".",".",".",".","|",".",".",".",".","|",".",".",".",".",".","|","|"]],[[".",0,2,3,2,0,2,0,"|",".",".","|",".",".",0,2,3,2,0,2,0,"|",".",".","|","|"],[0,".",".",".",".",".",".",".","|",0,".","|",0,0,".",".",".",".",".",".",".","|",0,".","|","|"],[".",".",".",".",".",".",".",".","|",".",2,"|",".",".",".",".",".",".",".",".",".","|",".",2,"|","|"],[".",".",".",".",".",".",".",".","|",".",".","|",".",".",".",".",".",".",".",".",".","|",".",".","|","|"],[".",".",".",".",".",".",".",".","|",".",".","|",".",".",".",".",".",".",".",".",".","|",".",".","|","|"],[".",".",".",".",".",".",".",".","|",".",".","|",".",".",".",".",".",".",".",".",".","|",".",".","|","|"]]],"numberofstrings":6,"notes":["E","B","G","D","A","E","B"],"capo":0,"stringnotes":["E4","B3","G3","D3","A2","E2"],"comments":["Stave 1:","Stave 2:","Stave 3:","Stave 4:"],"timing":[["W","W","W","W",null,"W","W","W","W","W",null,"W","W","W",null,"W","W","W","W","W",null,"W","W","W","W","W",null,"W","W","W","W","W",null,"W","W","W",null,"W","W","W","W","W"],["W","W",null,"W","W","W","W",null,"W","W","W","W",null,"W","W","W","W","W",null,"W","W","W","W","W",null,"W","W","W","W",null,"W","W","W","W","W"],["W","W","W","W","W","W",null,"W","W","W","W",null,"W","W","W","W","W"],["W","W","W","W","W","W","W","W","W","W","W",null,"W","W","W","W","W","W","W","W","W",null,"W","W"]],"timingvisible":false,"tabcounter":26,"stave":3,"totalstaves":4,"instrument":"6guitar","selectedtuning":"6_standard","version":"13"}

Member for

9 months
Submitted by Ahmed wagdy555 on Sun, 2021-01-10 10:55