Bad

Chords

01234567891011121314151617181920212223
E
B
G
D
A
E
B
0 1 2 3 4 5 6 7 8 9 10 11 12 13 14 15 16 17 18 19 20 21 22 23
(/) Slide Up  (\) Slide Down  (h) Hammer On  (p) Pull Off  (b) Bend (r) Release (v) Vibrato

Stave 1:

E|-----------------------------|-----------------------|-
B|-----------------------------|-----------------------|-
G|-----------------------------|-----------------------|-
D|-----------------0-0-0-0-1-2-|-----------0-0-0-0-1-2-|-
A|-0-0-0-0-3-3-3-3-------------|-0-3-3-3-3-------------|-
E|-----------------------------|-----------------------|-

Stave 2:

E|---------|-------|---------|-------|-
B|---1---1-|-----1-|---1---1-|-------|-
G|-2---2---|-0-2---|-2---2---|-2-2-0-|-
D|---------|-------|---------|-------|-
A|---------|-------|---------|-------|-
E|---------|-------|---------|-------|-

Stave 3:

E|---------------|---------------|---0-2-0-----0-0-|-0-0-3-0-3-0-3-0-|-3-5-8-5-5-3-3-3-3-3-5-|-
B|-----0-0-0---2-|-----0-0-0---2-|-3-------3-2-----|-----------------|-----------------------|-
G|-2-2-------2---|-2-2-------2---|-----------------|-----------------|-----------------------|-
D|---------------|---------------|-----------------|-----------------|-----------------------|-
A|---------------|---------------|-----------------|-----------------|-----------------------|-
E|---------------|---------------|-----------------|-----------------|-----------------------|-

Stave 4:

E|-0-3-5-8-5-3-|-3-3-3-3-5-|-3-3-5-5-5-5-5-5-5-5-5-5-5-5-5-5-|-0---
B|-------------|-----------|---------------------------------|---3-
G|-------------|-----------|---------------------------------|-----
D|-------------|-----------|---------------------------------|-----
A|-------------|-----------|---------------------------------|-----
E|-------------|-----------|---------------------------------|-----

							http://www.guitartabcreator.com
Instruments
{"title":"Bad ","strings":[[[".",".",".",".",".",".",".",".",".",".",".",".",".",".","|",".",".",".",".",".",".",".",".",".",".",".","|"],[".",".",".",".",".",".",".",".",".",".",".",".",".",".","|",".",".",".",".",".",".",".",".",".",".",".","|"],[".",".",".",".",".",".",".",".",".",".",".",".",".",".","|",".",".",".",".",".",".",".",".",".",".",".","|"],[".",".",".",".",".",".",".",".",0,0,0,0,1,2,"|",".",".",".",".",".",0,0,0,0,1,2,"|"],[0,0,0,0,3,3,3,3,".",".",".",".",".",".","|",0,3,3,3,3,".",".",".",".",".",".","|"],[".",".",".",".",".",".",".",".",".",".",".",".",".",".","|",".",".",".",".",".",".",".",".",".",".",".","|"]],[[".",".",".",".","|",".",".",".","|",".",".",".",".","|",".",".",".","|"],[".",1,".",1,"|",".",".",1,"|",".",1,".",1,"|",".",".",".","|"],[2,".",2,".","|",0,2,".","|",2,".",2,".","|",2,2,0,"|"],[".",".",".",".","|",".",".",".","|",".",".",".",".","|",".",".",".","|"],[".",".",".",".","|",".",".",".","|",".",".",".",".","|",".",".",".","|"],[".",".",".",".","|",".",".",".","|",".",".",".",".","|",".",".",".","|"]],[[".",".",".",".",".",".",".","|",".",".",".",".",".",".",".","|",".",0,2,0,".",".",0,0,"|",0,0,3,0,3,0,3,0,"|",3,5,8,5,5,3,3,3,3,3,5,"|"],[".",".",0,0,0,".",2,"|",".",".",0,0,0,".",2,"|",3,".",".",".",3,2,".",".","|",".",".",".",".",".",".",".",".","|",".",".",".",".",".",".",".",".",".",".",".","|"],[2,2,".",".",".",2,".","|",2,2,".",".",".",2,".","|",".",".",".",".",".",".",".",".","|",".",".",".",".",".",".",".",".","|",".",".",".",".",".",".",".",".",".",".",".","|"],[".",".",".",".",".",".",".","|",".",".",".",".",".",".",".","|",".",".",".",".",".",".",".",".","|",".",".",".",".",".",".",".",".","|",".",".",".",".",".",".",".",".",".",".",".","|"],[".",".",".",".",".",".",".","|",".",".",".",".",".",".",".","|",".",".",".",".",".",".",".",".","|",".",".",".",".",".",".",".",".","|",".",".",".",".",".",".",".",".",".",".",".","|"],[".",".",".",".",".",".",".","|",".",".",".",".",".",".",".","|",".",".",".",".",".",".",".",".","|",".",".",".",".",".",".",".",".","|",".",".",".",".",".",".",".",".",".",".",".","|"]],[[0,3,5,8,5,3,"|",3,3,3,3,5,"|",3,3,5,5,5,5,5,5,5,5,5,5,5,5,5,5,"|",0,"."],[".",".",".",".",".",".","|",".",".",".",".",".","|",".",".",".",".",".",".",".",".",".",".",".",".",".",".",".",".","|",".",3],[".",".",".",".",".",".","|",".",".",".",".",".","|",".",".",".",".",".",".",".",".",".",".",".",".",".",".",".",".","|",".","."],[".",".",".",".",".",".","|",".",".",".",".",".","|",".",".",".",".",".",".",".",".",".",".",".",".",".",".",".",".","|",".","."],[".",".",".",".",".",".","|",".",".",".",".",".","|",".",".",".",".",".",".",".",".",".",".",".",".",".",".",".",".","|",".","."],[".",".",".",".",".",".","|",".",".",".",".",".","|",".",".",".",".",".",".",".",".",".",".",".",".",".",".",".",".","|",".","."]]],"numberofstrings":6,"notes":["E","B","G","D","A","E","B"],"capo":0,"stringnotes":["E4","B3","G3","D3","A2","E2"],"comments":["Stave 1:","Stave 2:","Stave 3:","Stave 4:"],"timing":[["W","W","W","W","W","W","W","W","W","W","W","W","W","W",null,"W","W","W","W","W","W","W","W","W","W","W"],["W","W","W","W",null,"W","W","W",null,"W","W","W","W",null,"W","W","W"],["W","W","W","W","W","W","W",null,"W","W","W","W","W","W","W",null,"W","W","W","W","W","W","W","W",null,"W","W","W","W","W","W","W","W",null,"W","W","W","W","W","W","W","W","W","W","W"],["W","W","W","W","W","W",null,"W","W","W","W","W",null,"W","W","W","W","W","W","W","W","W","W","W","W","W","W","W","W",null,"W","W"]],"timingvisible":false,"tabcounter":32,"stave":3,"totalstaves":4,"instrument":"6guitar","selectedtuning":"6_standard","version":"13"}

Member for

1 year 6 months
Submitted by Ahmed wagdy on Sun, 2019-09-08 10:17