Sound will begin in 5 seconds

Slave of Time

Chords
01234567891011121314151617181920212223
E
B
G
D
A
E
B
0 1 2 3 4 5 6 7 8 9 10 11 12 13 14 15 16 17 18 19 20 21 22 23
Song Science #1: How Pros Use 6 Chords to Write Hit Songs
(/) Slide Up  (\) Slide Down  (h) Hammer On  (p) Pull Off  (b) Bend (r) Release (v) Vibrato

(W|WW) Whole (H|HH) Half (Q|QQ) Quarter (E|EE) 8th (S|SS) 16th (T|TT) 32nd (X|XX) 64th

Stave 1:
t: E E E E EE E E E E E EE E EE E E EE E E EE EE EE E EE EE EE
D|-----7--------10--7-----7--------10--7----------------7-------------------------------
A|--------8------------------8----------------8------------8---------10---------12--10--
F|--9--------9---------9--------9----------------9-----------------------9--------------
C|----------------------------------------10--------10--------10/12---------12----------
G|--------------------------------------------------------------------------------------
D|--------------------------------------------------------------------------------------

Stave 2:
t: E S S S S E S S S S
D|--------------------------------
A|--------------------------------
F|--4--4--4--4--4--4--4--4--4--4--
C|--2--2--2--2--2--5--5--5--5--5--
G|--2--2--2--2--2--3--3--3--3--3--
D|--------------------------------

http://www.guitartabcreator.com
Guitar Tab Creator is intended to store guitar tab created through the tool. It currently does not support in-line text editing. Any text you place in here will be lost. If you need to comment on your tab, please use the "Tab Notes" section located below.