アイノカタチ Ainokatachi/MISIA (Arranged by Ahaw)

01234567891011121314151617181920212223
E
B
G
D
A
E
B
0 1 2 3 4 5 6 7 8 9 10 11 12 13 14 15 16 17 18 19 20 21 22 23
(/) Slide Up  (\) Slide Down  (h) Hammer On  (p) Pull Off  (b) Bend (r) Release (v) Vibrato

Stave 1:

E|--------4-----2-----------------------------------------------------------------------
B|--0-----0--------3--2-----2--3--2-----0-----------3--2--------2--3--3-----------------
G|--0--------------0-----------------2-----------------------2-----3--3-----------0-----
D|--0--0-----------------------------------------2-----------------------------4--------
A|-----------0--0-----2--------------------------------------------------------0--------
E|--5-----------------------4-----------------2-----------4-----------5-----------------

Stave 2:

E|--------------------------------------------------------------------------------------------
B|-----------0--------------------------------------------------------0-----1--0--------------
G|--2-----2-----2-----0-----2-----2--4--2-----0-----2-----2--2-----2--------2-----2--0-----2--
D|--4--------------4--------2--------------4--------2-----------4-----------1-----------4-----
A|--5-----------------------4-----------------------3-----------------------2-----------------
E|--------------------------------------------------------------------------------------------

Stave 3:

E|-----------------------------------------------------------------------2--------
B|-----------------------------------------------------------0-----0--2--2--------
G|--0--0--2--0-----------0--0--2--0-----------0--0--2--0--2-----2-----3--3--------
D|--2-----------4--2-----1-----------4--2-----0-----------------2-----------------
A|--2-----------------------------------------0-----------------0-----4-----------
E|--2--------------------1--------------------0-----------------------------------

Stave 4:

E|-----------4--2--0-----------2-----4-----2--------------4--2-----------4--2--------------------
B|--3--2--3-----0--------2--3--------3-----------3--2--3-----0-----0--3--3-----3--3-----0--2-----
G|--2-----------0--------2--------2--2-----------2-----------0-----0-----0--------2--------------
D|--4-----------0--------2-----------0-----------4-----------0--2-----------------0--------------
A|--2--------------------0-----------------------2-----------------------0-----------------------
E|--------------2--------------------4-----------------------2--------------------------4--------

							http://www.guitartabcreator.com
Chords

Instruments
{"strings":[[[".","_",4,"_",2,"_","_","_","_","_","_","_","_","_","_","_","_","_","_","_","_","_","_","_","_","_","_","_"],[0,"_",0,"_","_",3,2,"_",2,3,2,"_",0,"_","_","_",3,2,"_","_",2,3,3,"_","_","_","_","_"],[0,"_","_","_","_",0,"_","_","_","_","_",2,"_","_","_","_","_","_","_",2,"_",3,3,"_","_","_",0,"_"],[0,0,"_","_","_","_","_","_","_","_","_","_","_","_","_",2,"_","_","_","_","_","_","_","_","_",4,"_","_"],[".","_","_",0,0,"_",2,"_","_","_","_","_","_","_","_","_","_","_","_","_","_","_","_","_","_",0,"_","_"],[5,"_","_","_","_","_","_","_",4,"_","_","_","_","_",2,"_","_","_",4,"_","_","_",5,"_","_","_","_","_"]],[[".","_","_","_","_","_","_","_","_","_","_","_","_","_","_","_","_","_","_","_","_","_","_","_","_","_","_","_","_","_"],[".","_","_",0,"_","_","_","_","_","_","_","_","_","_","_","_","_","_","_","_","_","_",0,"_",1,0,"_","_","_","_"],[2,"_",2,"_",2,"_",0,"_",2,"_",2,4,2,"_",0,"_",2,"_",2,2,"_",2,"_","_",2,"_",2,0,"_",2],[4,"_","_","_","_",4,"_","_",2,"_","_","_","_",4,"_","_",2,"_","_","_",4,"_","_","_",1,"_","_","_",4,"_"],[5,"_","_","_","_","_","_","_",4,"_","_","_","_","_","_","_",3,"_","_","_","_","_","_","_",2,"_","_","_","_","_"],[".","_","_","_","_","_","_","_","_","_","_","_","_","_","_","_","_","_","_","_","_","_","_","_","_","_","_","_","_","_"]],[[".","_","_","_","_","_","_","_","_","_","_","_","_","_","_","_","_","_","_","_","_","_","_",2,"_","_"],[".","_","_","_","_","_","_","_","_","_","_","_","_","_","_","_","_","_","_",0,"_",0,2,2,"_","_"],[0,0,2,0,"_","_","_",0,0,2,0,"_","_","_",0,0,2,0,2,"_",2,"_",3,3,"_","_"],[2,"_","_","_",4,2,"_",1,"_","_","_",4,2,"_",0,"_","_","_","_","_",2,"_","_","_","_","_"],[2,"_","_","_","_","_","_","_","_","_","_","_","_","_",0,"_","_","_","_","_",0,"_",4,"_","_","_"],[2,"_","_","_","_","_","_",1,"_","_","_","_","_","_",0,"_","_","_","_","_","_","_","_","_","_","_"]],[[".","_","_",4,2,0,"_","_","_",2,"_",4,"_",2,"_","_","_","_",4,2,"_","_","_",4,2,"_","_","_","_","_","_"],[3,2,3,"_",0,"_","_",2,3,"_","_",3,"_","_","_",3,2,3,"_",0,"_",0,3,3,"_",3,3,"_",0,2,"_"],[2,"_","_","_",0,"_","_",2,"_","_",2,2,"_","_","_",2,"_","_","_",0,"_",0,"_",0,"_","_",2,"_","_","_","_"],[4,"_","_","_",0,"_","_",2,"_","_","_",0,"_","_","_",4,"_","_","_",0,2,"_","_","_","_","_",0,"_","_","_","_"],[2,"_","_","_","_","_","_",0,"_","_","_","_","_","_","_",2,"_","_","_","_","_","_","_",0,"_","_","_","_","_","_","_"],[".","_","_","_",2,"_","_","_","_","_","_",4,"_","_","_","_","_","_","_",2,"_","_","_","_","_","_","_","_",4,"_","_"]]],"numberofstrings":6,"notes":["E","B","G","D","A","E","B"],"capo":0,"stringnotes":["E4","B3","G3","D3","A2","E2"],"comments":["Stave 1:","Stave 2:","Stave 3:","Stave 4:","Stave 5:"],"timing":[["W","W","W","W","W",null,"W","W","W","W","W",null,"W","W","W","W","W","W","W","W","W","W","W","W","W","W",null,null,null,null,null,"W"],["W","W","W","W","W","W","W","W","W","W","W","W","W","W","W","W","W","W","W","W","W","W","W","W","W","W","W","W","W","W","W"],["W","W","W","W","W","W","W","W","W","W","W","W","W","W","W","W","W","W","W","W","W","W","W","W","W","W","W",null,null,null,null,"W"],["W","W","W","W","W","W","W","W","W","W","W","W","W","W","W","W","W","W","W","W","W","W","W","W",null,"W",null,"W","W","W","W","W"],[]],"timingvisible":false,"tabcounter":31,"stave":3,"totalstaves":4,"instrument":"6guitar","selectedtuning":"6_standard","version":"13"}

Member for

1 month 2 weeks
Submitted by ahaw on Wed, 2021-06-16 20:16