Sound will begin in 5 seconds

Valencia - Where did you go?

Chords
01234567891011121314151617181920212223
E
B
G
D
A
E
B
0 1 2 3 4 5 6 7 8 9 10 11 12 13 14 15 16 17 18 19 20 21 22 23
(/) Slide Up  (\) Slide Down  (h) Hammer On  (p) Pull Off  (b) Bend (r) Release (v) Vibrato

Verses

E|--0--0--
B|--1--1--
G|--0--2--
D|--2--3--
A|--3-----
E|--------

Pre-Chorus

E|--3--0--
B|--3--1--
G|--0--2--
D|--0--3--
A|--x--x--
E|--3--x--

Chorus

E|--0--0--0--0--
B|--1--1--1--0--
G|--2--2--0--0--
D|--2--3--2--0--
A|--0--x--3--2--
E|--x--x--x--3--

Post-Chorus

E|--0--0--
B|--0--1--
G|--0--2--
D|--2--3--
A|--2--x--
E|--0--x--

Interlude:

E|--0--
B|--1--
G|--0--
D|--2--
A|--3--
E|--x--

Bridge:

E|--0--0--0--
B|--1--0--1--
G|--0--0--2--
D|--2--2--3--
A|--3--2--x--
E|--x--0--x--

Chorus 3:

E|--------------------------------------
B|--------1--------1--------1--------0--
G|-----2--------2--------0--------0-----
D|-----------3--------------------------
A|--0-----------------3-----------------
E|-----------------------------3--------

Post-Chorus:

E|--------------------0--
B|--------0--------1--1--
G|-----0--------2-----0--
D|-----------3--------2--
A|--------------------3--
E|--0-----------------x--

http://www.guitartabcreator.com
Guitar Tab Creator is intended to store guitar tab created through the tool. It currently does not support in-line text editing. Any text you place in here will be lost. If you need to comment on your tab, please use the "Tab Notes" section located below.