Sound will begin in 5 seconds

Little Mix - Secret Love Song Pt. 2

Chords
01234567891011121314151617181920212223
E
B
G
D
A
E
B
0 1 2 3 4 5 6 7 8 9 10 11 12 13 14 15 16 17 18 19 20 21 22 23
(/) Slide Up  (\) Slide Down  (h) Hammer On  (p) Pull Off  (b) Bend (r) Release (v) Vibrato

Capo Fret 2

Intro

E|--------------------------------------------------
B|-----3-----3-----3-----3-----3-----3-----3-----3--
G|--------------------------------------------------
D|--------------------------------------------------
A|--------------------------------------------------
E|--3-----3-----3-----3-----3-----3-----3-----3-----

Verse 1 (repeat twice)

E|--------------------------------------------------------------------------------------------------
B|-----3-----3-----3-----3-----3-----3-----3-----3-----3-----3-----3-----3-----3-----3-----3-----3--
G|--------------------------------------------------------------------------------------------------
D|--------------------------------------------------------------------------------------------------
A|--------------------------------------------------2-----2-----2-----2-----2-----2-----2-----0-----
E|--3-----3-----3-----3-----3-----3-----3-----2-----------------------------------------------------



E|-----------------------------------------------------------------------------------------------------
B|--------3-----3-----3-----3-----3-----3-----3-----3-----3-----3-----3-----3--------------------------
G|--------------------------------------------------------------------------------2-----2-----2-----2--
D|-----------------------------------------------------------------------------0-----0-----0-----0-----
A|-----3-----3-----3-----3-----3-----3-----3-----2-----------------------------------------------------
E|-----------------------------------------------------3-----3-----3-----3-----------------------------

Pre-Chorus 1

E|--------------------------------------------------------------------------2--
B|-----3-----3-----3-----3-----3-----3-----3-----3-----3-----3-----3-----3--3--
G|--------------------------------------------------------------------------2--
D|--------------------------------------------------------------------------0--
A|--0-----0-----0-----0-----2-----2-----2-----2-----0-----0-----0-----0--------
E|-----------------------------------------------------------------------------

Chorus 1 (repeat twice)

E|--------------------------------------------------------------------------------------------------
B|-----3-----3-----3-----3-----3-----3-----3-----------3-----3-----3-----3-----3-----3-----3--------
G|-----------------------------------------------2-----------------------------------------------2--
D|--------------------------------------------0-----------------------------------------------0-----
A|--------------------------------------------------------------------------------------------------
E|--3-----3-----3-----3-----3-----3-----2-----------0-----0-----0-----0-----0-----0-----2-----------



E|--------------------------------------------------------------------------2--
B|-----3-----3-----3-----3-----3-----3-----3-----3-----3-----3-----3-----3--3--
G|--------------------------------------------------------------------------2--
D|--------------------------------------------------------------------------0--
A|--3-----3-----3-----3-----3-----3-----3-----2--------------------------------
E|--------------------------------------------------3-----3-----3-----3--------

Verse 2

E|--3--2--0--3--2--
B|--3--3--1--3--3--
G|--0--4--0--0--2--
D|--0--4--2--0--0--
A|-----2--3--------
E|--3--------3-----

							http://www.guitartabcreator.com
Note:
Guitar Tab Creator is intended to store guitar tab created through the tool. It currently does not support in-line text editing. Any text you place in here will be lost. If you need to comment on your tab, please use the "Tab Notes" section located below.