Sound will begin in 5 seconds

HSM - Gotta Go My Own Way (Rhythm Guitar)

Chords
01234567891011121314151617181920212223
E
B
G
D
A
E
B
0 1 2 3 4 5 6 7 8 9 10 11 12 13 14 15 16 17 18 19 20 21 22 23
(/) Slide Up  (\) Slide Down  (h) Hammer On  (p) Pull Off  (b) Bend (r) Release (v) Vibrato

Capo Fret 2

Intro 2x and Verse 4x and End 3x 

E|-----0-----0-----3-----2-----
B|-----3-----1-----3-----3-----
G|-----0-----0-----0-----2-----
D|-----2-----2-----0-----0-----
A|-----2-----3-----x-----x-----
E|-----0-----x-----3-----x-----

Pre Chorus

E|-----0-----0-----3-----2-----0-----0-----
B|-----1-----1-----3-----3-----1-----3-----
G|-----2-----0-----0-----2-----0-----0-----
D|-----2-----2-----0-----0-----2-----4-----
A|-----0-----3-----x-----x-----3-----5-----
E|-----x-----x-----3-----x-----------------

Chorus pt 1 3x pt 2 1x

E|-----0-----0-----3-----2-----0-----0-----0-----
B|-----3-----1-----3-----3-----1-----1-----3-----
G|-----0-----0-----0-----2-----2-----0-----0-----
D|-----2-----2-----0-----0-----2-----2-----4-----
A|-----2-----3-----x-----x-----0-----3-----5-----
E|-----0-----x-----3-----x-----------------------

Bridge repeat 4x times

E|-----0-----0-----3-----2-----
B|-----1-----1-----3-----3-----
G|-----0-----0-----0-----2-----
D|-----2-----2-----0-----0-----
A|-----3-----3-----x-----x-----
E|-----x-----x-----3-----x-----

... end on:

E|-----0-----2-----
B|-----1-----3-----
G|-----0-----2-----
D|-----2-----0-----
A|-----3-----------
E|-----------------

Stave 6:

E|-----
B|-----
G|-----
D|-----
A|-----
E|-----

							http://www.guitartabcreator.com
Note:
Guitar Tab Creator is intended to store guitar tab created through the tool. It currently does not support in-line text editing. Any text you place in here will be lost. If you need to comment on your tab, please use the "Tab Notes" section located below.