Sound will begin in 5 seconds

HSM - Bet on It

Chords
01234567891011121314151617181920212223
E
B
G
D
A
E
B
0 1 2 3 4 5 6 7 8 9 10 11 12 13 14 15 16 17 18 19 20 21 22 23
(/) Slide Up  (\) Slide Down  (h) Hammer On  (p) Pull Off  (b) Bend (r) Release (v) Vibrato

Capo Fret 3

pm. Intro 2x Verses 4x

E|--0--0--0--0--
B|--1--1--1--0--
G|--2--2--2--1--
D|--2--2--3--2--
A|--0--0--x--2--
E|-----------0--

pm. Pre-Chorus

E|--0--0--1--0--
B|--1--0--3--1--
G|--2--0--2--2--
D|--2--0--0--3--
A|--0--2--------
E|-----3--------

Chorus (last chorus is played faster

E|--0--0--0--0--0--0--0--1--
B|--1--0--1--0--1--0--1--3--
G|--2--1--2--1--2--1--2--2--
D|--2--2--2--2--2--2--3--0--
A|--0--2--0--2--0--2--------
E|-----0-----0-----0--------

Breakdown, strum only once

E|--0--0--0--
B|--1--1--0--
G|--2--2--1--
D|--2--3--2--
A|--0-----2--
E|--------0--

Bridge:

E|--1--0--0--0--0--1--0--0--0--0--0--
B|--3--1--1--0--1--3--0--1--0--1--0--
G|--2--2--2--0--2--2--1--2--0--2--1--
D|--0--2--3--0--2--0--2--2--0--3--2--
A|-----0-----2--0-----2--0--2-----2--
E|-----------3--------0-----3-----0--

							http://www.guitartabcreator.com
Note:
Guitar Tab Creator is intended to store guitar tab created through the tool. It currently does not support in-line text editing. Any text you place in here will be lost. If you need to comment on your tab, please use the "Tab Notes" section located below.